Search tabs and chords

Search for song, artist or band

Log in

One click and you are in

Login with Facebook Login with Google

Why sign up and log in

Guitar Tabs Explorer
Ultimo De La Fila guitar tabs for Son cuatro dias

Guitar tabs

SON CUATRO DIAS ----- El Ultimo de la Fila


Atendiendo a los acordes que se utilizan, la cancion se
compone de tres partes, que llamare A chord diagramAA, B chord diagramBB y C chord diagramCC. A chord diagramAA + B chord diagramBB
representan el 70 por cien de la cancion y son las que he
conseguido descifrar mas o menos fiablemente. Mas adelante
intentare sacar la parte C chord diagramCC, pero no es facil porque la
guitarra suena aqui muy debil.
Todas las partes se tocan arpegiando unos cuantos acordes
que ahora describo.

Parte A chord diagramAA:
acorde 1   x x 5 0 3 x
acorde 2   x x 4 0 3 x
acorde 3   x x 2 0 0 x
acorde 4   x x 0 0 0 x
acorde 5   x 3 2 0 1 x
acorde 6   0 x 2 0 3 x

Parte B chord diagramBB:
acorde 5
acorde 6
acorde 7   x x 4 0 1 x

Los acordes del 1 al 4 se tocan simplemente arpegiando de manera
simple, tocando 4a-3a-2a, y conectando con el siguiente arpegio
repitiendo la 4a. Asi se consigue hacer los cuatro tiempos del compas.
Pero mas explicitamente, la cosa iria mas o menos asi:


Parte A chord diagramAA

Duer         me      ...
------------------------------------------------
---------3-----------------3-----------------0--
-----0-----------------0-----------------0------
-5------------5----4-----------4----2-----------
------------------------------------------------
------------------------------------------------
acorde 1               2                 3


y     en   un  local ...,
-------------------------------------------------------------------
-------------0------------------------------1--------------3-------
---------0------------------------------0------------------0-------
2----0-----------0-----------------0h2-----------------2-----------
----------------------3--------------------------------------------
---------------------------------------------------0---------------
acorde  4                         5                     6



esta tocando ....
1        2       3      4   5   6
(identica secuencia que toda la anterior)

miras hacia mi y ....
1     2     3  4                 5          6

que hay un ....
1       2       3      4          5      6


Parte B chord diagramBB

       De   su   guitarra   ...
--------------------------------------------
------------------1--------------3----------
--------------0------------------0----------
---------0h2----------------2---------------
-3------------------------------------------
------------------------0-------------------
acorde   5                    6


  no -  tas        ...
---------------------------------------------
------------------0h1------------3-----------
--------------0------------------0-----------
-0-------0h4-----------------2---------------
---------------------------------------------
-------------------------0-------------------
acorde   7                    6


   los acordes ...,
 5                6

   hacia la ...,
 7                6

   viejas canciones ...,
 5                     6

   viejos ...,
 7          6

  entre el humo ...,
 5                    6

  la noche ....
 7                 Mim (aqui cambia; se toma un descanso antes
                        de enlazar otra vez con la parte A chord diagramAA)


Parte A chord diagramAA


[SOLO DE GUITARRA]


Parte C chord diagramCC

Parte A chord diagramAA

Sentado en un ...,
  1        2       3   4           5           6

triste estampa ....
1      2      3         4       5      6

Duerme la ciudad y ...
1      2       3      4            5          6 (ahora no se
                                                 arpegia)


THE END



Se recomienda guitarra electrica sin distorsion con pedal
Chorus, o guitarra clasica, que tambien queda bien.

Para consultas y/o sugerencias (estas ultimas seran
rapidamente desestimadas):


	Juan Carlos Perez Barranco
	Serveis d'Informatica
	Universitat de Barcelona

	E chord diagramEE-mail: perez@fenix.ird.ub.es

Almost there ...

Sign in to get your own page with links to favourite songs and more. You are just one click away...

Login with Facebook Login with Google