Log in

One click and you are in

Login with Facebook Login with Google

Why sign up and log in

Guitar Tabs Explorer
Ultimo Asalto guitar tabs for Pulling on the boots

Guitar tabs

WENO

QUE OS DEJO LA DE PULLING ON THE BOOTS TAMBIEN


A chord diagramA augmentedA VER

COMIENZA ASI...

6:--1-1-1-1-1-1-1-4-4-4-4-4-1-1-1-1-1-1-1-4-4-4-4-4
5:--3-3-3-3-3-3-3-6-6-6-6-6-3-3-3-3-3-3-3-6-6-6-6-6
4:-------------------------------------------------
3:-------------------------------------------------

6:--1-1-1-1-1-1-1-4-4-4-4-4-6-6-6-4-6-6-6-4-1
5:--3-3-3-3-3-3-3-6-6-6-6-6-8-8-8-6-8-8-8-6-3
4:-------------------------------------------
3:-------------------------------------------

6:--4-4-4-4-4-6-6-6-4-6-6-6-4-1
5:--6-6-6-6-6-8-8-8-6-8-8-8-6-3
4:-----------------------------
3:-----------------------------


Y  KUANDO DICE SKINHEAD SKINHEAD SIEMPRE EN A chord diagramE MajorE FOLLON
SKINHEAD SKINHEAD ES TU DIVERSION HACE...:


6:--1-1-1-1-1-1-1-4-4-4-4-4-
5:--3-3-3-3-3-3-3-6-6-6-6-6-6-6-6-6-8--8--8--8
4:--------------------------8-8-8-8-10-10-10-10-
3:----------------------------------------------


Y LA CANCION NO TIENE MAS....

Other versions of Pulling On The Boots

Pulling on The BootsChords

Almost there ...

Sign in to get your own page with links to favourite songs and more. You are just one click away...

Login with Facebook Login with Google