Log in

One click and you are in

Login with Facebook Login with Google

Why sign up and log in

Guitar Tabs Explorer
Ultimo guitar tabs for Vorrei soltanto amarti

Guitar tabs

Tuning: Standard (E A D G B E)

"VORREI SOLTANTO AMARTI"
by Ultimo
Solo:
  02:21
e|--------------------------------------------------------------------------------------------|
B|--------------------------------------------------------------------------------------------|
G|-hpbr7----5(h7)-----------------------------------------------------------------------------|
D|---------------7~~-(\)------5h7~(p5)--------------------------------------------------------|
A|----------------------------------------------g7p5-(\3)-5/7-\5--3h5----------7-\-5----------|
E|--------------------------------------------------------------------5--------------g3h5-----|

e|------------------------------------------------------------------------------|
B|----------------------13-\----------15fbr-fb~~-15p13h15--15~---13-------------|
G|-------12--12h14~~~--------------------------------------------12fbr-12~~-----|
D|-12h14------------------------------------------------------------------------|
A|------------------------------------------------------------------------------|
E|------------------------------------------------------------------------------|

e|-----------------------------------------------|
B|------------12---13---13fbr~~-12---------------|
G|-10--9--10-------------------------------------|
D|-----------------------------------------------|
A|-----------------------------------------------|
E|-----------------------------------------------|


************************************

| g     Grace note
|(n)    Ghost note
| h     Hammer-on
| p     Pull-off
| hpbr  Half pre-bend then release
| fb    Full bend
| fbr   Full bend then release
| /     Slide up
| \     Slide down
| ~     Vibrato

************************************

Other versions of Vorrei Soltanto Amarti

Vorrei soltanto amartiChords

Almost there ...

Sign in to get your own page with links to favourite songs and more. You are just one click away...

Login with Facebook Login with Google