Log in

One click and you are in

Login with Facebook Login with Google

Why sign up and log in

Guitar Tabs Explorer
Ultimo guitar tabs for Mille universi

Guitar tabs

Tuning: Standard (E A D G B E)

"MILLE UNIVERSI"
 by Ultimo
tabbed by:    Dropdeee
tuning:       Standard (A chord diagramE MajorE A chord diagramA majorA A chord diagramD MajorD A chord diagramG MajorG A chord diagramBB e)
effects:      Lead electric
video:        https://www.youtube.com/watch?v=4ePpyWxBlg8


 Solo:

  03:15
e|--------------------------------------------------------13fbr-----13-13------------------------x-x-x-|
B|--13fbr-------13-13-13-13-13-13fbr----13-13~~-11-11~~-11--------------------10hbr~~------------x-x-x-|
G|-----------------------------------------------------------------------------------------------x-x-x-|
D|-----------------------------------------------------------------------------------------------------|
A|----------------------------------------------------------------------------------------x-x----------|
E|----------------------------------------------------------------------------------------x-x----------|

e|--------------------------------------------13----13----------------------------------13-15-15fb-|
B|--13h15-15-13-15-15-13-15-15-13-15-15-13-15----15-13-15-15-13-15-15-13-15-15-13-15-15------------|
G|-------------------------------------------------------------------------------------------------|
D|-------------------------------------------------------------------------------------------------|
A|-------------------------------------------------------------------------------------------------|
E|-------------------------------------------------------------------------------------------------|

e|--------------------13-15p13------------------13-15p13-----13-15p13----13h15-15fb--15fb-15-15-15rb-13----|
B|--15-13-15-15-13-15---------15-13-15-15-13-15---------13h15--------h15--------------------------------15-|
G|---------------------------------------------------------------------------------------------------------|
D|---------------------------------------------------------------------------------------------------------|
A|---------------------------------------------------------------------------------------------------------|
E|---------------------------------------------------------------------------------------------------------|

e|---------------------------------------------------------------------------------------------------------|
B|--13fbr-------13--13--13-13--13--13br-------13-13-11-10--------------------------------------------------|
G|--------------------------------------------------------10-----------------------------------------------|
D|--------------------------------------------------------10fbr-----10-10-10-10-10-10fbr~~-----10-10-10-10-|
A|---------------------------------------------------------------------------------------------------------|
E|---------------------------------------------------------------------------------------------------------|

e|------------------------------------------------|
B|------------------------------------------------|
G|-----------10-----------------------------------| to
D|-10fbr-----10-10-10-10-10-10fbr~~---10-10-10----|  fade
A|------------------------------------------------|    out
E|------------------------------------------------|


************************************

| x   Dead note
| h    Hammer-on
| p    Pull-off
| fb   Full-bend
| fbr  Full-bend then release
| ~    Vibrato

************************************

Other versions of Mille Universi

Mille universiChords

Almost there ...

Sign in to get your own page with links to favourite songs and more. You are just one click away...

Login with Facebook Login with Google