Search tabs and chords

Search for song, artist or band

Log in

One click and you are in

Login with Facebook Login with Google

Why sign up and log in

Guitar Tabs Explorer
Ultima Thule guitar tabs for Vinklingar och svek branded banned

Vinklingar Och Svek Branded Banned tab by Ultima Thule

Ultima Thule guitar tabs for Vinklingar och svek branded banned

Guitar tabs

-------------------------------------------------------------------------------
                             Vinklingar och svek/Branded banned - Ultima Thule
-------------------------------------------------------------------------------
Tabbed by:Espen77
E chord diagramEE-mail:Espen.flyfisher@outlook.com

Tuning:Standard

  Intro
e|-------------------------------------|
B|-------5---------------8-------------|
G|----5---5-----------8---8------------|
D|----5----5--5-------8----8--5--------| x2
A|----3-------5-------6-------5--------|
E|------------3---------------3--------|

  Riff
e|------3-1------------------3-1------------------------------------------|
B|----------4-3--1-3-4-3----------4-3--1-3-4-3----------------------------|
G|-----------------------0------------------------------------------------|
D|------------------------------------------------------------------------|
A|------------------------------------------------------------------------|
E|------------------------------------------------------------------------|

  Verse
e|------------------------------------------------------------------------|
B|------------------------------------------------------------------------|
G|--------------7-7-7-7---------------------------------------------------|
D|----5-5-5-5---7-7-7-7---3-3-3-3---5-5-5-5-------------------------------|
A|----5-5-5-5---5-5-5-5---3-3-3-3---5-5-5-5-------------------------------|
E|----3-3-3-3-------------1-1-1-1---3-3-3-3-------------------------------|

  Chorus
e|-------------------------------------|
B|-------5---------------8-------------|
G|----5---5-----------8---8------------|
D|----5----5--5-------8----8--5--------|
A|----3-------5-------6-------5--------|
E|------------3---------------3--------|

Play loud and have fun :)
************************************

| /   slide up
| \   slide down
| h   hammer-on
| p   pull-off
| ~   vibrato
| +   harmonic
| x   Mute note
| b   Bend
| pb  Pre-bend
| br  Bend release
| pbr Pre-bend release
| brb Bend release bend

************************************

Almost there ...

Sign in to get your own page with links to favourite songs and more. You are just one click away...

Login with Facebook Login with Google