Search tabs and chords

Search for song, artist or band

Log in

One click and you are in

Login with Facebook Login with Google

Why sign up and log in

Guitar Tabs Explorer
Ultima Thule guitar tabs for Proud and strong

Guitar tabs

-------------------------------------------------------------------------------
                             Proud and Strong - Ultima Thule
-------------------------------------------------------------------------------
Tabbed by:Espen77
E chord diagramEE-mail:Espen.flyfisher@outlook.com

Tuning:Standard

  Intro
e|------------------------------------------(--------------------------------|
B|------------------------------------------(--------------------------------|
G|----------5-------------------------------(--8--8---------5----------------|
D|----------5--------5----------------------(--8--8-8-8-8-8-5----------------|
A|------3-3-3--------5----------------------(--6--6-8-8-8-8-3----------------|
E|---------------3-3-3----------------------(-------6-6-6-6------------------|
   Listen to the song for strumming patterns
   the chords are repeated numerous times.
  Riff
e|---------------------------------------------------------------------------|
B|---------------------------------------------------------------------------|
G|----5-5--7-8---5-5--7-8--------7-7-8-10-8-7--7--7-7-8-7-5------------------|
D|---------------------------------------------------------------------------|
A|---------------------------------------------------------------------------|
E|---------------------------------------------------------------------------|

e|---------------------------------------------------------------------------|
B|----4--4-6-6-4-6--8--------------------------------------------------------|
G|--------------------5------------------------------------------------------|
D|---------------------------------------------------------------------------|
A|---------------------------------------------------------------------------|
E|---------------------------------------------------------------------------|


  Verse
e|---------------------------------------------------------------------------|
B|---------------------------------------------------------------------------|
G|--------5--------------------------------8--8---------5--------------------|
D|--------5----5-5-------------------------8--8-8-8-8-8-5--------------------|
A|----3-3-3----5-5-------------------------6--6-8-8-8-8-3--------------------|
E|-----------3-3-3------------------------------6-6-6-6----------------------|
    "repeated "

  Chorus
e|---------------------------------------------------------------------------|
B|---------------------------------------------------------------------------|
G|---8-8-8-8-----------------8----8-8-8-8----------5-------------------------|
D|---8-8-8-8-8----8--6-6-6-6-8----8-8-8-8-8----8-8-5-------------------------|
A|---6-6-6-6-8----8--6-6-6-6-6----6-6-6-6-8----8-8-3-------------------------|
E|-----------6----6--4-4-4-4--------------6----6-6---------------------------|


  Outro
e|---------------------------------------------------------------------------|
B|---------------------------------------------------------------------------|
G|-------5-------5-------5--------------------5------------------------------|
D|-------5-------5-------5--8-8---x4----------5------------------------------|
A|---3-3-3---3-3-3---3-3-3--8-8---------------3------------------------------|
E|--------------------------6-6----------------------------------------------|


Play loud and have fun :)

************************************

| /   slide up
| \   slide down
| h   hammer-on
| p   pull-off
| ~   vibrato
| +   harmonic
| x   Mute note
| b   Bend
| pb  Pre-bend
| br  Bend release
| pbr Pre-bend release
| brb Bend release bend

Almost there ...

Sign in to get your own page with links to favourite songs and more. You are just one click away...

Login with Facebook Login with Google