Search tabs and chords

Search for song, artist or band

Log in

One click and you are in

Login with Facebook Login with Google

Why sign up and log in

Guitar Tabs Explorer
Ultima Thule guitar tabs for Poltava

Guitar tabs

-------------------------------------------------------------------------------
                             Poltava - Ultima Thule
-------------------------------------------------------------------------------
Tabbed by:Espen77
E-mail:Espen.flyfisher@outlook.com

Tuning:Standard

  Intro
e|---------------------------------------------------------------------------|
B|---------------------------------------------------------------------------|
G|------------4-3~-----4-3~-----4-3~-----4-3~--------------------------------|
D|---2-----2-------2---------2--------2--------------------------------------|
A|---2-----2-------2---------2--------2--------------------------------------|
E|---0-----0-------0---------0--------0--------------------------------------|

  Riff 1
e|---------------------------------------------------------------------------|
B|---------------------------------------------------------------------------|
G|--------2-3-2--------------------------------------------------------------|
D|---2-3--------2-------0-2-0------------------------------------------------|
A|-------------------3---------3-2-------------------------------------------|
E|---------------------------------------------------------------------------|

  Verse/chorus
e|---------------------------------------------------------------------------|
B|---------------------------------------------------------------------------|
G|------------2-2-2-2-------------5-5-5-5--2-2-2-2---------------------------|
D|---2-2-2-2--2-2-2-2--2-2-2-2----5-5-5-5--2-2-2-2--2-2-2-2------------------|
A|---2-2-2-2--0-0-0-0--2-2-2-2----3-3-3-3--0-0-0-0--2-2-2-2------------------|
E|---0-0-0-0-----------0-0-0-0----------------------0-0-0-0------------------|
  Listen to the song for strumming patterns, chords are repeated more than 4 times

  Riff 2 (guitar 1)
e|---------------------------------------------------------------------------|
B|---------------------------------------------------------------------------|
G|---------------------------------------------------------------------------|
D|---------------------------------------------------------------------------|
A|---5--3-(3)-5--3--5-7-----5--3-(3)-5-3-2---0-------------------------------|
E|-----------------------------------------3---------------------------------|

         (guitar 2)
e|---------------------------------------------------------------------------|
B|---------------------------------------------------------------------------|
G|---7\5------7\5---7/9-----7\5-----7-5-4----2-------------------------------|
D|---7\5------7\5---7/9-----7\5-----7-5-4-5--2-------------------------------|
A|---5\3------5\3---7/7-----5\3-----5-3-2-5--0-------------------------------|
E|----------------------------------------3----------------------------------|


Play loud and have fun :)
************************************

| /   slide up
| \   slide down
| h   hammer-on
| p   pull-off
| ~   vibrato
| +   harmonic
| x   Mute note
| b   Bend
| pb  Pre-bend
| br  Bend release
| pbr Pre-bend release
| brb Bend release bend

************************************

Almost there ...

Sign in to get your own page with links to favourite songs and more. You are just one click away...

Login with Facebook Login with Google