Search tabs and chords

Search for song, artist or band

Log in

One click and you are in

Login with Facebook Login with Google

Why sign up and log in

Guitar Tabs Explorer
Ultima Thule guitar tabs for Needles and pins

Guitar tabs

-------------------------------------------------------------------------------
                             Needles and pins - Ultima Thule
-------------------------------------------------------------------------------
Tabbed by:Espen77
E-mail:Espen.flyfisher@outlook.com

Tuning:Standard

  Intro
e|----------------|
B|----------------|
G|---2------------|
D|---2------------|
A|---0------------|
E|----------------|

        Intro riff                     Riff
e|---------------------------------------------------------------------------|
B|---------------------------------------------------------------------------|
G|---6-4--6-4-7-6--4-6-4-----------6-4-6--4--7-6--4-6-4----------------------|
D|-----------------------7------------------------------7--------------------|
A|---------------------------------------------------------------------------|
E|---------------------------------------------------------------------------|


  Verse(1-2)
e|---------------------------------------------------------------------------|
B|---------------------------------------------------------------------------|
G|---2-2-2-2-----------2-2-2-2-----------------------------------------------|
D|---2-2-2-2--4-4-4-4--2-2-2-2--4-4-4-4--------------------------------------|
A|---0-0-0-0--4-4-4-4--0-0-0-0--4-4-4-4--------------------------------------|
E|------------2-2-2-2-----------2-2-2-2--------------------------------------|
  Listen to song for strumming patterns,chords are repeated more than 4 times

  Chorus(1-2)
e|---------------------------------------------------------------------------|
B|---------------------------------------------------------------------------|
G|---2-----7--9--------------------------------------------------------------|
D|---2--4--7--9-------guitar 2 plays riff------------------------------------|
A|---0--4--5--7--------------------------------------------------------------|
E|------2--------------------------------------------------------------------|

  Interlude
e|---------------------------------------------------------------------------|
B|---------------------------------------------------------------------------|
G|---6--4--------------------------------------------------------------------|
D|---6--4---7--6-6-6-6-------------------------------------------------------|
A|---4--2---7--6-6-6-6-------------------------------------------------------|
E|----------5--4-4-4-4-------------------------------------------------------|

  Verse(3-4)
e|---------------------------------------------------------------------------|
B|---------------------------------------------------------------------------|
G|---6-6-6-6-----------6-6-6-6-----------------------------------------------|
D|---6-6-6-6--8-8-8-8--6-6-6-6--8-8-8-8--------------------------------------|
A|---4-4-4-4--8-8-8-8--4-4-4-4--8-8-8-8--------------------------------------|
E|------------6-6-6-6-----------6-6-6-6--------------------------------------|

  Chorus(3-4)
e|---------------------------------------------------------------------------|
B|---------------------------------------------------------------------------|
G|---6-----------------------------------------------------------------------|
D|---6--8--4--6------guitar 2 plays riff-------------------------------------|
A|---4--8--4--6--------------------------------------------------------------|
E|------6--2--4--------------------------------------------------------------|


Play loud and have fun :)
************************************

| /   slide up
| \   slide down
| h   hammer-on
| p   pull-off
| ~   vibrato
| +   harmonic
| x   Mute note
| b   Bend
| pb  Pre-bend
| br  Bend release
| pbr Pre-bend release
| brb Bend release bend

Almost there ...

Sign in to get your own page with links to favourite songs and more. You are just one click away...

Login with Facebook Login with Google