Log in

One click and you are in

Login with Facebook Login with Google

Why sign up and log in

Guitar Tabs Explorer
Ulrik guitar chords for Life

Guitar chords with lyrics

NOTE: This is done by my ears, so please be nice ^^
Remember to visit my YouTube channel InsaneShuffle if you want more from me:D
STANDARD TUNING, CAPO ON 2ND

LIFE

Intro:
It's hard to explain, but I'll try :P

Chord:C, plus finger...
B|------1-------------------0--------0-|
G|--------0------3------------0----0---|
D|---2---------2-----2----2------2-----|
A|-3---------3----------3-------3------|
Chord:em, plus finger...
B|-----0----------0-----0---------0--1-|
G|-------0----------0-----0------------|
D|---2--------2---------2------2-------|
A|-2--------2---------2------2---------|
Chord:C, plus finger...
B|------1-------------------0---3----|
G|--------0------3-----------------0-|
D|---2---------2-----2----2----------|
A|-3---------3----------3------------|

Chord:em, plus finger...
B|-----0---------0-------0-0-0-0-2-|
G|-------0---------0---------------|
D|---2--------2--------------------|
A|-2--------2---------2------------|

The same chords as the intro, but do not finger-pluck, just play normal :)
A chord diagramC majorC A chord diagramC majorC A chord diagramC majorC A chord diagramC majorC A chord diagramC majorC ( hard to explain but, with the pinky on and off, and the pointfinger off ) (
the plucking over! )
em(normal)

I will die someday
But right now it feels quite far away
I will die someday
Let's hope it's not today

I know life is today
Tomorrow can't wait
My head want's to move on
But my heart want's to stay

I'm just a kid with a guitar in my hands
But I know something that some can't understand

           A chord diagramC majorC  A chord diagramG MajorG        A chord diagramD MajorD (4th finger on the 3rd of the A chord diagramE MajorE string,all chorus)
'Cause we live and we die
I do whatever I like
Life is now, so let's try
To live our whole life out
And it starts now

My parents, they say
Do all the fun tomorrow, do the boring stuff today
But I say that's wrong
I'll to the fun things today, and the other things can wait

'Cause we only live once
So don't blow it, take the chance
To do exacly what you want

'Cause we live and we die
I do whatever I like
Life is now so let's try
To live our whole life out
And it starts now

I love you, you love me
That's the way it was suppose to be
But now you left me, you hurt me
But I guess that was just ment to be
Yeah, I love you, you love me
I thought that was just suppose to be
But now you're with him, not with me
And I can't change that if that's how you feel

'Cause we live and we die
I do whatever I like
Life is now
So let's live our hole life out
And it starts now

I will die someday
But right now it feels quite far away
I will die someday

Almost there ...

Sign in to get your own page with links to favourite songs and more. You are just one click away...

Login with Facebook Login with Google