Log in

One click and you are in

Login with Facebook Login with Google

Why sign up and log in

Guitar Tabs Explorer
Uk Subs bass tabs for You dont belong

Bass tabs

Tuning: Standard tuning


Tabbed by: bassm99
E-mail: alanmatthews1966@yahoo.co.uk
Tuning: E, A, D, G


Bass Starts: 0:05


Intro:

G|--------------------------------------------------------------------------|
D|--------------------------------------------------------------------------|
A|--------------------------------------------------------------------------|
E|--5-5--3-3-(x2)--0-0-3-0-5-0-3-0-(x3)--5-5--3-3-(x1)----------------------|

G|--------------------------------------------------------------------------|
D|--------------------------------------------------------------------------|
A|--------------------------------------------------------------------------|
E|--0-0-3-0-5-0-3-0-(x3)--5-5--3-3-(x1)--55555555-77777777-88888888---------|

G|--------------------------------------------------------------------------|
D|-----------12-------------------------------------------------------------|
A|-----10-12----------------------------------------------------------------|
E|--10----------(x1)--0-0-3-0-5-0-3-0-(x3)--5-5--3-3-(x1)-------------------|


Verse: (Play 16 Times)

G|--------------------------------------------------------------------------|
D|--------------------------------------------------------------------------|
A|--------------------------------------------------------------------------|
E|--0-0-3-0-5-0-3-0---------------------------------------------------------|

Chorus:

G|--------------------------------------------------------------------------|
D|--------------------------------------12----------------------------------|
A|--------------------------------10-12-------------------------------------|
E|--55555555-77777777-88888888-10-----------55555555-77777777-88888888------|

G|--------------------------------------------------------------------------|
D|--------------------------------------------------------------------------|
A|--------------------------------------------------------------------------|
E|--10-10-10-10-10-10-10-10-------------------------------------------------|

Pre Verse:

G|--------------------------------------------------------------------------|
D|--------------------------------------------------------------------------|
A|--------------------------------------------------------------------------|
E|--0-0-3-0-5-0-3-0-(x3)--5-5--3-3-(x1)-------------------------------------|

Repeat Verse:

Repeat Chorus:


Bridge: (Play 16 Times)

G|--------------------------------------------------------------------------|
D|--------------------------------------------------------------------------|
A|--------------------------------------------------------------------------|
E|--0-0-3-0-5-0-3-0---------------------------------------------------------|


Chorus:

G|--------------------------------------------------------------------------|
D|--------------------------------------12----------------------------------|
A|--------------------------------10-12-------------------------------------|
E|--55555555-77777777-88888888-10-----------55555555-77777777-88888888------|

G|--------------------------------------------------------------------------|
D|--------------------------------------------------------------------------|
A|--------------------------------------------------------------------------|
E|--10-10-10-10-10-10-10-10-88888888----------------------------------------|

G|--------------------------------------------------------------------------|
D|--------------------------------------12----------------------------------|
A|--------------------------------10-12-------------------------------------|
E|--55555555-77777777-88888888-10-----------55555555-77777777-88888888------|

G|--------------------------------------------------------------------------|
D|--------------------------------------------------------------------------|
A|--------------------------------------------------------------------------|
E|--10-10-10-10-10-10-10-10-------------------------------------------------|

End: (Play 14 Times) (Fades Out)

G|--------------------------------------------------------------------------|
D|--------------------------------------------------------------------------|
A|--------------------------------------------------------------------------|
E|--0-0-3-0-----------------------------------------------------------------|

You Don't Belong bass tab

Uk Subs bass tabs for You dont belong "You Don`t Belong" from the album "Diminished Responsibility" (1981).

Written by Harper/Garratt.

Almost there ...

Sign in to get your own page with links to favourite songs and more. You are just one click away...

Login with Facebook Login with Google