Log in

One click and you are in

Login with Facebook Login with Google

Why sign up and log in

Guitar Tabs Explorer
Uk Subs bass tabs for So what

Bass tabs

Tuning: 0


Tabbed by: bassm99
E-mail: alanmatthews1966@yahoo.co.uk
Tuning: E, A, D, G


Intro: (Play Twice)

G|--------------------------------------------------------------------------|
D|--------------------------------------------------------------------------|
A|--8-7-555-----------------------------------------------------------------|
E|----------5-7-7-----------------------------------------------------------|


Verse: (Play 8 Times)

G|--------------------------------------------------------------------------|
D|--------------------------------------------------------------------------|
A|--8-7-555-----------------------------------------------------------------|
E|----------5-7-7-----------------------------------------------------------|


Bridge:

G|--------------------------------------------------------------------------|
D|--------------------------------------------------------------------------|
A|--4----2----4----2----2/--------------------------------------------------|
E|--------------------------------------------------------------------------|

Repeat Verse:

Bridge:

G|--------------------------------------------------------------------------|
D|--------------------------------------------------------------------------|
A|--5-----------------------------------------------------------------------|
E|--------------------------------------------------------------------------|

Repeat Verse:


Bridge:

G|--------------------------------------------------------------------------|
D|--------------------------------------------------------------------------|
A|--4----2----4----2--------------------------------------------------------|
E|--------------------------------------------------------------------------|

Guitar Solo:

G|--------------------------------------------------------------------------|
D|----------------4/--16\---------------------------------------------------|
A|--------------------------------------------------------------------------|
E|--22222222-(x7)-----------------------------------------------------------|


Verse:

G|--------------------------------------------------------------------------|
D|--------------------------------------------------------------------------|
A|--8-7-555-------------8-7-555---------------------------------------------|
E|----------5-7-7-(x7)----------5--7-7-7-7----------------------------------|

End:

G|--------------------------------------------------------------------------|
D|--------------------------------------------------------------------------|
A|--------------------------------------------------------------------------|
E|--7-----------------------------------------------------------------------|

So What bass tab

Uk Subs bass tabs for So what "So What" from the album "Diminished Responsibility" (1981).

Written by Harper/Garratt.

Almost there ...

Sign in to get your own page with links to favourite songs and more. You are just one click away...

Login with Facebook Login with Google