Log in

One click and you are in

Login with Facebook Login with Google

Why sign up and log in

Guitar Tabs Explorer
Uk Subs guitar tabs for Public servant

Guitar tabs

Intro                           x2
E---------------------------------|
B---------------------------------|
G---------3-3-3-3---------3-3-3-3-|
D-3-3-3-3-3-3-3-3-3-3-3-3-3-3-3-3-|
A-3-3-3-3-1-1-1-1-3-3-3-3-1-1-1-1-|
E-1-1-1-1---------1-1-1-1---------|
Verse                           x2
E---------------------------------|
B---------------------------------|
G---------3-3-3-3---------3-3-3-3-|
D-3-3-3-3-3-3-3-3-3-3-3-3-3-3-3-3-|
A-3-3-3-3-1-1-1-1-3-3-3-3-1-1-1-1-|
E-1-1-1-1---------1-1-1-1---------|


Chorus
E-------------------------------------------------|
B-------------------------------------------------|
G-5-5-5-5-3-3-3-3---------3---------------3-------|
D-5-5-5-5-3-3-3-3-3-3-3-3-3-------3-------3-------|
A-3-3-3-3-1-1-1-1-3-3-3-3-1-------3-------1-------|
E-----------------1-1-1-1---------1---------------|


Verse                           x2
E---------------------------------|
B---------------------------------|
G---------3-3-3-3---------3-3-3-3-|
D-3-3-3-3-3-3-3-3-3-3-3-3-3-3-3-3-|
A-3-3-3-3-1-1-1-1-3-3-3-3-1-1-1-1-|
E-1-1-1-1---------1-1-1-1---------|

Chorus
E-------------------------------------------------|
B-------------------------------------------------|
G-5-5-5-5-3-3-3-3---------3---------------3-------|
D-5-5-5-5-3-3-3-3-3-3-3-3-3-------3-------3-------|
A-3-3-3-3-1-1-1-1-3-3-3-3-1-------3-------1-------|
E-----------------1-1-1-1---------1---------------|


Verse                           x2
E---------------------------------|
B---------------------------------|
G---------3-3-3-3---------3-3-3-3-|
D-3-3-3-3-3-3-3-3-3-3-3-3-3-3-3-3-|
A-3-3-3-3-1-1-1-1-3-3-3-3-1-1-1-1-|
E-1-1-1-1---------1-1-1-1---------|


Chorus
E-------------------------------------------------|
B-------------------------------------------------|
G-5-5-5-5-3-3-3-3---------3---------------3-------|
D-5-5-5-5-3-3-3-3-3-3-3-3-3-------3-------3-------|
A-3-3-3-3-1-1-1-1-3-3-3-3-1-------3-------1-------|
E-----------------1-1-1-1---------1---------------|


Solo (Rythm guitar)             x4
E---------------------------------|
B---------------------------------|
G---------3-3-3-3---------3-3-3-3-|
D-3-3-3-3-3-3-3-3-3-3-3-3-3-3-3-3-|
A-3-3-3-3-1-1-1-1-3-3-3-3-1-1-1-1-|
E-1-1-1-1---------1-1-1-1---------|


Chorus
E-------------------------------------------------|
B-------------------------------------------------|
G-5-5-5-5-3-3-3-3---------3---------------3-------|
D-5-5-5-5-3-3-3-3-3-3-3-3-3-------3-------3-------|
A-3-3-3-3-1-1-1-1-3-3-3-3-1-------3-------1-------|
E-----------------1-1-1-1---------1---------------|


Verse                           x2
E---------------------------------|
B---------------------------------|
G---------3-3-3-3---------3-3-3-3-|
D-3-3-3-3-3-3-3-3-3-3-3-3-3-3-3-3-|
A-3-3-3-3-1-1-1-1-3-3-3-3-1-1-1-1-|
E-1-1-1-1---------1-1-1-1---------|


Chorus
E-------------------------------------------------|
B-------------------------------------------------|
G-5-5-5-5-3-3-3-3---------3---------------3-------|
D-5-5-5-5-3-3-3-3-3-3-3-3-3-------3-------3-------|
A-3-3-3-3-1-1-1-1-3-3-3-3-1-------3-------1-------|
E-----------------1-1-1-1---------1---------------|


Outro (repeat and fade out)
E---------------------------------|
B---------------------------------|
G---------3-3-3-3---------3-3-3-3-|
D-3-3-3-3-3-3-3-3-3-3-3-3-3-3-3-3-|
A-3-3-3-3-1-1-1-1-3-3-3-3-1-1-1-1-|
E-1-1-1-1---------1-1-1-1---------|

Other versions of Public Servant

Public servantChords

Almost there ...

Sign in to get your own page with links to favourite songs and more. You are just one click away...

Login with Facebook Login with Google