Log in

One click and you are in

Login with Facebook Login with Google

Why sign up and log in

Guitar Tabs Explorer
Uk Subs bass tabs for Ice age

Bass tabs

Tuning: Standard tuning


Tabbed by: bassm99
E-mail: alanmatthews1966@yahoo.co.uk
Tuning: E, A, D, G


Intro: (Play 10 Times)

G|--------------------------------------------------------------------------|
D|--------------------------------------------------------------------------|
A|----------3-3-------0-0-0-------------------------------------------------|
E|--1-1-3-0-----3-0-1-------------------------------------------------------|


Verse: (Play 8 Times)

G|--------------------------------------------------------------------------|
D|--------------------------------------------------------------------------|
A|----------3-3-------0-0-0-------------------------------------------------|
E|--1-1-3-0-----3-0-1-------------------------------------------------------|


Chorus: (Play Twice)

G|--------------------------------------------------------------------------|
D|------------7-5-7-5-7-5-7-------------------------------------------------|
A|--3-3-3-2-0-------------------------3-3-------0-0-0-----------------------|
E|----------------------------1-1-3-0-----3-0-1-----------------------------|

Repeat Intro: (Play Once)

Repeat Verse:

Repeat Chorus:

Repeat Intro: (Play Once)

Repeat Verse:


Chorus:

G|--------------------------------------------------------------------------|
D|------------7-5-7-5-7-5-7-------------------------------------------------|
A|--3-3-3-2-0-------------------------3-3-------0-0-0-----------------------|
E|----------------------------1-1-3-0-----3-0-1-----------------------------|

G|--------------------------------------------------------------------------|
D|------------7-5-7-5-7-5-7-------------------------------------------------|
A|--3-3-3-2-0-------------------------3-3--3--------------------------------|
E|----------------------------1-1-3-0---------3--3--5-3-5-----10-----------

Ice Age bass tab

Uk Subs bass tabs for Ice age "Ice Age" from the U.K Subs EP "Keep On Running(Til You Burn)" (1981).

Written by Harper/Garratt.

Almost there ...

Sign in to get your own page with links to favourite songs and more. You are just one click away...

Login with Facebook Login with Google