Search tabs and chords

Search for song, artist or band

Log in

One click and you are in

Login with Facebook Login with Google

Why sign up and log in

Guitar Tabs Explorer
Uh Huh Her guitar tabs for Not a love song

Guitar tabs

Difficulty: Intermediate

Intro and verse
E|-----------------------------------------------------------------------------|
B|-----------------------------------------------------------------------------|
G|-----------------------------------------------------------------------------|
D|-----3-----3------------3-----3------------2-----2---------------------------|
A|--------------------------------------------------------------5-----5--------|
E|-3-3---3-3---3-3-3--3-3---3-3---3-3-3--3-3---3-3---3-3-3--3-3---3-3---3-3-3--|

"Always..."
E|-7-7-7-7-7-7-7-7--8-8-8-8-8-8-8-8--10-10-10-10-10-10-10-10-10----------------|
B|-----------------------------------------------------------------------------|
G|-----------------------------------------------------------------------------|
D|-----------------------------------------------------------------------------|
A|-----------------------------------------------------------------------------|
E|-----------------------------------------------------------------------------|

"Say you love me again, but you never do "
E|-7-7-7-7-7-7-7-7--8-8-8-8-8-8-8-8--10-10-10-10-10-10-10-10-10----------------|
B|-----------------------------------------------------------------------------|
G|-----------------------------------------------------------------------------|
D|---------------------------------------------------------------5~------------|
A|-----------------------------------------------------------------------------|
E|-----------------------------------------------------------------------------|

Chorus:
E|-----------------------------------------------------------------------------|
B|-----------------------------------------------------------------------------|
G|-5-5-5-5-5-5-5-5--3-3-3-3-3-3-3-3--------------------------------------------|
D|-5-5-5-5-5-5-5-5--3-3-3-3-3-3-3-3--5-5-5-5-5-8-5-5-5-------------------------|
A|-3-3-3-3-3-3-3-3--1-1-1-1-1-1-1-1--5-5-5-5-5-8-5-5-5-------------------------|
E|-----------------------------------3-3-3-3-3-6-3-3-3*------------------------|

*play only the solo if you prefere
E|-------------|
B|-------------|
G|-------------|
D|-5-5-5-8-5-5-|
A|-------------|
E|-------------|

E|-----------------------------------------------------------------------------|
B|-----------------------------------------------------------------------------|
G|-5-5-5-5-5-5-5-5--3-3-3-3-3-3-3-3--------------------------------------------|
D|-5-5-5-5-5-5-5-5--3-3-3-3-3-3-3-3--5-5-5-5-5-8-5-5-5-------------------------|
A|-3-3-3-3-3-3-3-3--1-1-1-1-1-1-1-1--5-5-5-5-5-8-5-5-5-------------------------|
E|-----------------------------------3-3-3-3-3-6-3-3-3*------------------------|

E|-----------------------------------------------------------------------------|
B|-----------------------------------------------------------------------------|
G|-8-8-8-8-8-8-8-8--5-5-5-5-5-5-5-5--------------------------------------------|
D|-8-8-8-8-8-8-8-8--5-5-5-5-5-5-5-5--5-5-5-5-5-8-5-5-5-------------------------|
A|-6-6-6-6-6-6-6-6--3-3-3-3-3-3-3-3--5-5-5-5-5-8-5-5-5-------------------------|
E|-----------------------------------3-3-3-3-3-6-3-3-3*------------------------|

E|-----------------------------------------------------------------------------|
B|-----------------------------------------------------------------------------|
G|-5-5-5-5-5-5-5-5--3-3-3-3-3-3-3-3--------------------------------------------|
D|-5-5-5-5-5-5-5-5--3-3-3-3-3-3-3-3--5-5-5-5-5-8-5-5-5-------------------------|
A|-3-3-3-3-3-3-3-3--1-1-1-1-1-1-1-1--5-5-5-5-5-8-5-5-5-------------------------|
E|-----------------------------------3-3-3-3-3-6-3-3-3*------------------------|

After the verse:
E|-----------------------------------------------------------------------------|
B|-----6-----6------------6-----6------------5-----5---------------------------|
G|--------------------------------------------------------------7-----7--------|
D|-5-5---5-5---5-5-5--5-5---5-5---5-5-5--5-5---5-5---5-5-5--5-5---5-5----------|
A|-----------------------------------------------------------------------------|
E|-----------------------------------------------------------------------------|

E|-----------------------------------------------------------------------------|
B|-----6-----6------------6-----6------------5-----5---------------------------|
G|--------------------------------------------------------------7-----7--------|
D|-5-5---5-5---5-5-5--5-5---5-5---5-5-5--5-5---5-5---5-5-5--5-5---5-5----------|
A|-----------------------------------------------------------------------------|
E|-----------------------------------------------------------------------------|

E|-----------------------------------------------------------------------------|
B|-----6-----6------------6-----6------------5-----5---------------------------|
G|--------------------------------------------------------------7-----7--------|
D|-5-5---5-5---5-5-5--5-5---5-5---5-5-5--5-5---5-5---5-5-5--5-5---5-5----------|
A|-----------------------------------------------------------------------------|
E|-----------------------------------------------------------------------------|

E|-----------------------------------------------------------------------------|
B|-----6-----6------------6-----6------------5-----5---------------------------|
G|--------------------------------------------------------------7-----7--------|
D|-5-5---5-5---5-5-5--5-5---5-5---5-5-5--5-5---5-5---5-5-5--5-5---5-5----------|
A|-----------------------------------------------------------------------------|
E|-----------------------------------------------------------------------------|

E|-----------------------------------------------------------------------------|
B|-----6-----6------------6-----6------------5-----5---------------------------|
G|--------------------------------------------------------------7-----7--------|
D|-5-5---5-5---5-5-5--5-5---5-5---5-5-5--5-5---5-5---5-5-5--5-5---5-5----9~----|
A|-----------------------------------------------------------------------------|
E|-----------------------------------------------------------------------------|

Chorus

Here, you can play whether this:
E|-----------------------------------------------------------------------------|
B|-----6-----6------------6-----6------------5-----5---------------------------|
G|--------------------------------------------------------------7-----7--------|
D|-5-5---5-5---5-5-5--5-5---5-5---5-5-5--5-5---5-5---5-5-5--5-5---5-5----------|
A|-----------------------------------------------------------------------------|
E|-----------------------------------------------------------------------------|

Or the solo with a funny effect:
E|-----------------------------------------------------------------------------|
B|-----------------------------------------------------------------------------|
G|-----------------------------------------------------------------------------|
D|-5--3--5---5-7-8-10---10---8---5---------------------------------------------|
A|-----------------------------------------------------------------------------|
E|-----------------------------------------------------------------------------|

Chorus - play the same chords and there it is = )

~ = effect or vibrato

Almost there ...

Sign in to get your own page with links to favourite songs and more. You are just one click away...

Login with Facebook Login with Google