Guitar Tabs Explorer
Uh Huh Her guitar tabs for Another case

Another Case tab


Be the first to rate

Another Case tab by Uh Huh Her

Guitar tabs

Print

ANOTHER CASE - UH HUH HER
-------------------------------------------------------------------------------
Tabbed by: Feeb

Tuning: Drop D chord diagramDD Tuning

Intro
e|--------4~-----------------|------------------------------------------------|
B|--------4~-----------------|------------------------------------------------|
G|-5-5~---5~-------3~--------|------------------------------------------------|
D|-5-5~---6~--1~---3~--------|------------------------------------------------|
A|-3-3~---6~--1~---1~--------|------------------------------------------------|
D|------------1~-------------|-8-10-8-10-8-6-8-6-8-8-1-3-1-3-1-6-8-6-8-8 [x2]-|

Verse
e|--------------44444444-----------------------------------------------------|
B|--------------44444444-----------------------------------------------------|
G|--55555555----55555555--------------------------------33333333-------------|
D|--55555555----66666666------11111111------------------33333333-------------|
A|--33333333----66666666------11111111 [1's not 11's]---11111111-------------| x 4
D|----------------------------11111111---------------------------------------|
    ........    ........      ........                  ........

Pre-Chorus
e|---------------------------------------------------------------------------|
B|---------------------------------------------------------------------------|
G|-----------------------------------------------------8-8-8-10-10-8-8-8-10--|
D|---------------------------------------------------------------------------|
A|---------------------------------------------------------------------------| x 2
D|--8-10-8-10-8-6-8-6-8-8-1-3-1-3-1-6-8-6-8-8--------------------------------|

Chorus
e|--------------44444444----------------------------------------------------|
B|--------------44444444----------------------------------------------------|
G|--55555555----55555555-----------------33333333---------------------------|
D|--55555555----66666666-----11111111----33333333---------------------------|
A|--33333333----66666666-----11111111----11111111---------------------------|
D|---------------------------11111111---------------------------------------|

Post-Chorus
e|---------------------------------------------------------------------------|
B|---------------------------------------------------------------------------|
G|-----------------------------------------------------8-8-8-10-10-8-8-8-10--|
D|---------------------------------------------------------------------------|
A|---------------------------------------------------------------------------| x 2
D|--8-10-8-10-8-6-8-6-8-8-1-3-1-3-1-6-8-6-8-8--------------------------------|

Bridge
"...tell me I'm the only one..."
e|-------------------4~----------------------------------------------------------|
B|-------------------4~----------------------------------------------------------|
G|---5-5~------------5~--------------------------3~--------8-8-8-10-10-8-8-8-10--|
D|---5-5~------------6~-----------1-1~-----------3~------------------------------| x 2
A|---3-3~------------6~-----------1-1~-----------1~------------------------------|
D|--------------------------------1-1~-------------------------------------------|

Outro (improv) [play outro three times and end of C chord diagramCC power chord]
e|---------------------------------------------------------------------------|
B|--------------------------------------11-9---------------------------------|
G|---------------12~-12~-12~---8~-8-8---------12~----------------------------|
D|--/10~-10~-10~-------------------------------------------------------------|
A|---------------------------------------------------------------------------|
D|---------------------------------------------------------------------------|

e|---------------------------------------------------------------------------|
B|---------------------------------------------------------------------------|
G|----------------12~-12~-12~--8~-8-8-10-10----8-8-8-10-10-8-8-8-10----------|
D|--/10~-10~-10~-------------------------------------------------------------|
A|---------------------------------------------------------------------------|
D|---------------------------------------------------------------------------|

e|---------------------------------------------------------------------------|
B|---------------------------------------------------------------------------|
G|--5~-----------------------------------------------------------------------|
D|--5~-----------------------------------------------------------------------|
A|--3~-----------------------------------------------------------------------|
D|---------------------------------------------------------------------------|


************************************

| /   slide up
| \   slide down
| h   hammer-on
| p   pull-off
| ~   vibrato
| +   harmonic
| x   Mute note
| b   Bend
| pb  Pre-bend
| br  Bend release
| pbr Pre-bend release
| brb Bend release bend

Comment this song and these guitar tabs

Do you have corrections, comments on the guitar tabs, thoughts about the song or a message to the author? Write them below.