Search tabs and chords

Search for song, artist or band

Log in

One click and you are in

Login with Facebook Login with Google

Why sign up and log in

Guitar Tabs Explorer
Ugly Kid Joe guitar tabs for Undertow

Guitar tabs with lyrics

This is what I managed to tab for the solo of undertow.
I've also put in the chords - they're basically an E-major shape with open
notes, as shown below.

intro same as outro of solo (see below)
N.B.

po= pull off
h  = hammer on
( ) indicates a bend or sustaining the same note
x = mute
< = strike hard


intro chords
---------------------------------------------------
--0-------0--0------0--0-----0--0----------------
--1-------1--3------1--4-----4--1----------------
--2-------2--4------2--5-----5--2---------------
--2-------2--4------2--5-----5--2----------------
--0-------0--0------0--0-----0--0----------------


verse chords


-----------------------------------------
------------------------------------------
------------------------------------------
-2--2---------5--5-----5--5----7--7-------7-(7)--7-7------
-2--2---------5--5-----5--5----7--7-------7--9---7-7-------
-0--0--x---0-3--3--x--3--3----5--5--x-x-----------------
                    h			h

-----------------------------------------
--0---0----0---0------------------------------
--1---3----4---6------------------------------
--2---4----5---7-----------------------------
--2---4----5---7------------------------------
--0---0----0---0------------------------------

These are the verse chords - first played as chords, and then arpeggiated
after the heavy bit (heavy bit is at the end of the first verse).

-----------------------------------------
------------------------------------------
------------------------------------------
---2----5----7-----7---(7)--7-------------------
---2----5----7-----7----9---7-------------------
---0----3----5-------------------------------
the heavy bit is the chords above, as played for the start of the verse, but
with more distortion. This patern is also used for the chorus.


solo

----------------------------------------------------------
--12--11-----------12--11--------------12--11----------
-----------14(15)------------14-(15)-------------14-(15)
----------------------------------------------------------
----------------------------------------------------------
----------------------------------------------------------




----------------------------------------------------------
--12--11-----------12--11--------------12--11----------
-----------14(15)------------14-(15)-------------14-(15)
----------------------------------------------------------
----------------------------------------------------------
----------------------------------------------------------

------------------------------------------------------------------
--12--11------------------12-11-10--------------------------------
------------14--(15)------------------14(15)-(14)-12------14--12--
---------------------------------------------------po-------------
------------------------------------------------------------------
------------------------------------------------------------------


------------------------------------------------------------------
------------------------------------------------------------------
------------12---------------------------------------------------
-14-12--14----14---14-12------12-------------------------------------
---------------------po---14-----14--12--------------12-14--12/14-
------------------------------<----------15--12--15-----
				unsure about this bit

---------------------------12-----------------------------
------------------------------12--15-(17)---15-12-------
-------12-----12--14(16)----------------------po---14--
12/14-----14---------------------------------------------
----------------------------------------------------------
----------------------------------------------------------

-----------------------------12-------12-----------12--15(17)---15~~
--12--11----------12--15(17)----15(17)----15(17)-----------------------
-----------14(15)------------------------------------------------------
-----------------------------------------------------------------------
-----------------------------------------------------------------------
-----------------------------------------------------------------------


----15--12----------15-----------------------------------------------
-------po----15(17)-----15(17)-------12-11------------------12---11--
-------------------------------mute------------14(15)--12-14----po---
------------------------------------------------------------h-------14
----------------------------------------------------------------------
----------------------------------------------------------------------

-------------------------------------------------------------------
-------------------------------------------------------------------
-12---------------------12-12---------------------------------------
-----14-----14-14-14----------14-14\12--12/14--14\12--12\11-11\9-9\7-
--------------------------------------------------------------------
--------------------------------------------------------------------


------------------------------------------------------------------
----------------------------9------9/11----9/12----12\9---------
------------------------------------------------------------------
-7\5--5\2--------------------------------------------------------
------------------------------------------------------------------
------------------------------------------------------------------
   		w/slide (this is the outro)

Bolt.

Almost there ...

Sign in to get your own page with links to favourite songs and more. You are just one click away...

Login with Facebook Login with Google