Search tabs and chords

Search for song, artist or band

Log in

One click and you are in

Login with Facebook Login with Google

Why sign up and log in

Guitar Tabs Explorer
Ugly Kid Joe guitar tabs for Strange

Guitar tabs

STRANGE - Ugly Kid Joe
----------------------
Tuning: Drop A chord diagramC#C#

Intro:

D#|---------------|----|--|---------------|-----------|
A#|---------------|----|--|---------------|-----------|
F#|---------------|----|--|---------------|-----------|
C#|---------------|----|--|---------------|-----------|
G#|-0--7-0--5-3-2-|-0--|--|-0--7-0--5-3-2-|-5--6-7-10-|
C#|-0--7-0--5-3-2-|-0--|--|-0--7-0--5-3-2-|-5--6-7-10-|
Verse 1:

D#|---------------|------------|---------------|------------|---------------|
A#|---------------|------------|---------------|------------|---------------|
F#|---------------|------------|---------------|------------|---------------|
C#|---------------|------------|---------------|------------|---------------|
G#|---------------|------------|---------------|------------|---------------|
C#|-0-0--0-0--0-0-|-3--4--5--6-|-0-0--0-0--0-0-|-5--6--7--3-|-0-0--0-0--0-0-|

D#|------------|---------------|------------|
A#|------------|---------------|------------|
F#|------------|---------------|------------| 2x
C#|------------|---------------|------------|
G#|------------|---------------|------------|
C#|-3--4--5--6-|-0-0--0-0--0-0-|-0--5--6--7-|


Chorus:

D#|----------------|-------------------|----------------|-------------------|
A#|----------------|-------------------|----------------|-------------------|
F#|----------------|-------------------|----------------|-------------------|
C#|----------------|-------------------|----------------|-------------------|
G#|-0---12-0-6-5-3-|-5-----------------|-0---12-0-6-5-3-|-5-----------------|
C#|-0---12-0-6-5-3-|-5---0-3-5-6-5-3-5-|-0---12-0-6-5-3-|-5---0-3-5-6-5-3---|

                                                             PM-------------
D#|----------------|-------------------|----------------|-------------------|
A#|----------------|-------------------|----------------|-------------------|
F#|----------------|-------------------|----------------|-------------------|
C#|----------------|-------------------|----------------|-------------------|
G#|-0---12-0-6-5-3-|-5-----------------|-0---12-0-6-5-3-|-5-----------------|
C#|-0---12-0-6-5-3-|-5---0-3-5-6-5-3-5-|-0---12-0-6-5-3-|-5---0-3-5-6-5-3---|

Verse 2:

D#|---------------|------------|---------------|------------|---------------|
A#|---------------|------------|---------------|------------|---------------|
F#|---------------|------------|---------------|------------|---------------|
C#|---------------|------------|---------------|------------|---------------|
G#|---------------|------------|---------------|------------|---------------|
C#|-0-0--0-0--0-0-|-3--4--5--6-|-0-0--0-0--0-0-|-5--6--7--3-|-0-0--0-0--0-0-|

D#|------------|---------------|------------|
A#|------------|---------------|------------|
F#|------------|---------------|------------| 2x
C#|------------|---------------|------------|
G#|------------|---------------|------------|
C#|-3--4--5--6-|-0-0--0-0--0-0-|-0--5--6--7-|


Chorus:

D#|----------------|-------------------|----------------|-------------------|
A#|----------------|-------------------|----------------|-------------------|
F#|----------------|-------------------|----------------|-------------------|
C#|----------------|-------------------|----------------|-------------------|
G#|-0---12-0-6-5-3-|-5-----------------|-0---12-0-6-5-3-|-5-----------------|
C#|-0---12-0-6-5-3-|-5---0-3-5-6-5-3-5-|-0---12-0-6-5-3-|-5---0-3-5-6-5-3---|

                                                             PM-------------
D#|----------------|-------------------|----------------|-------------------|
A#|----------------|-------------------|----------------|-------------------|
F#|----------------|-------------------|----------------|-------------------| 2x
C#|----------------|-------------------|----------------|-------------------|
G#|-0---12-0-6-5-3-|-5-----------------|-0---12-0-6-5-3-|-5-----------------|
C#|-0---12-0-6-5-3-|-5---0-3-5-6-5-3-5-|-0---12-0-6-5-3-|-5---0-3-5-6-5-3---|


Bridge 1:

D#|----|----------------|-----|----------------|-----|----------------|-----|
A#|----|----------------|-----|----------------|-----|----------------|-----|
F#|----|----------------|-----|----------------|-----|----------------|-----|
C#|----|----------------|-----|----------------|-----|----------------|-----|
G#|0---|-0---12-0-6-5-3-|-0---|-0---12-0-6-5-3-|-5---|-0---12-0-6-5-3-|-0---|
C#|0---|-0---12-0-6-5-3-|-0---|-0---12-0-6-5-3-|-5---|-0---12-0-6-5-3-|-0---|

D#|--------------|------------|
A#|--------------|------------|
F#|--------------|------------| 2x
C#|--------------|------------|
G#|-0---12-6-5-3-|-5---6-7-10-|
C#|-0---12-6-5-3-|-5---6-7-10-|


Bridge-Outro:

D#|--------------|-----------------|-----|
A#|--------------|-----------------|-----|
F#|--------------|-----------------|-----|
C#|--------------|-----------------|-----|
G#|-0---12-6-5-3-|-5---------------|-0---|
C#|-0---12-6-5-3-|-5---0-3-5-6-5-3-|-0---|


Outro / Solo Rythm:
        PM-          PM---            PM---            PM---
D#|----------------|----------------|----------------|--------------|
A#|----------------|----------------|----------------|--------------|
F#|----------------|----------------|----------------|--------------|
C#|---------5------|---------5------|---------5------|--------5-----|
G#|-----------5--4-|-----------5--4-|-----------5--4-|----------5-6-|
C#|-0---0-0--------|-0-0-0----------|-0-0-0----------|-0-0-0------6-|

repeat until the end


************************************
         LEGEND

| PM  Palm mute

************************************

Almost there ...

Sign in to get your own page with links to favourite songs and more. You are just one click away...

Login with Facebook Login with Google