Search tabs and chords

Search for song, artist or band

Log in

One click and you are in

Login with Facebook Login with Google

Why sign up and log in

Guitar Tabs Explorer
Ugly Kid Joe guitar tabs for Shine

Guitar tabs

Band:Ugly Kid Joe
Album:Motel California
Track no:10
Catalouge no:GAS0000113RAW

SHINE
tune guitar down half a step

Intro (bass guitar)

 Just a grain of sand on a th...
Gb--------5----------------5----------------5----------------
Db-----------------------------------------------------------
Ab-----4-----3----2-----4-----3----------4-----3-------------
Eb--3----------------3----------------3----------------4--3--
  Try to understand why I go to pieces don't k...
Gb--------5----------------5----------------5----------------
Db-----------------------------------------------------------
Ab-----4-----3----2-----4-----3----------4-----3-------------
Eb--3----------------3----------------3----------------4--3--


Verse

          Got a smokin' hand          nobody k...
Eb-----------------------------------------------------------
Bb-----------------------------------------------------------
Gb--5--5--5---7--7--7--7--7-7---5--5--5---7--7--7--7--7-7----
Db--5--5--5---7--7--7--7--7-7---5--5--5---7--7--7--7--7-7----
Ab--3--3--3---5--5--5--5--5-5---3--3--3---5--5--5--5--5-5----
Eb-----------------------------------------------------------


          But I can feel it          It's ...
Eb-----------------------------------------------------------
Bb-----------------------------------------------------------
Gb--5--5--5---7--7--7--7--7-7--------------------------------
Db--5--5--5---7--7--7--7--7-7--------------------------------
Ab--3--3--3---5--5--5--5--5-5---6--6--6--6-6---5-5-5-5--5--5-
Eb------------------------------4--4--4--4-4---3-3-3-3--3--3-

          It's a greed machine        it m...
Eb-----------------------------------------------------------
Bb-----------------------------------------------------------
Gb--5--5--5---7--7--7--7--7-7---5--5--5---7--7--7--7--7-7----
Db--5--5--5---7--7--7--7--7-7---5--5--5---7--7--7--7--7-7----
Ab--3--3--3---5--5--5--5--5-5---3--3--3---5--5--5--5--5-5----
Eb-----------------------------------------------------------


      I'm gonna have to ...
Eb-----------------------------------------------------------
Bb-----------------------------------------------------------
Gb---------------------7--7----------------------------------
Db---------------------7--7----------------------------------
Ab-----6---------------5--5----------------------------------
Eb-----4-----------------------------------------------------


Interlude

Play intro but double up bass with guitar

Chorus

                   I still shine            I still shine
Eb-----------------------------------------------------------
Bb-----------------------------------------------------------
Gb---9--9--9--9---7--7---------9--9--9--9---7--7-------------
Db---9--9--9--9---7--7---4-5---9--9--9--9---7--7---4-5-------
Ab---7--7--7--7---5--5---2/3---7--7--7--7---5--5---2/3-------
Eb---0--0--0--0----------------0--0--0--0--------------------

                  I still shine........................
Eb-----------------------------------------------------------
Bb-----------------------------------------------------------
Gb---9--9--9--9---7--7---------------------------------------
Db---9--9--9--9---7--7---4-5---------------------------------
Ab---7--7--7--7---5--5---2/3--6--6--6--6-6--5--5--5--5--5-5--
Eb---0--0--0--0---------------4--4--4--4-4--3--3--3--3--3-3--

E-Mail corrections comments or requests to darrenaoneill@aol.com

Almost there ...

Sign in to get your own page with links to favourite songs and more. You are just one click away...

Login with Facebook Login with Google