Search tabs and chords

Search for song, artist or band

Log in

One click and you are in

Login with Facebook Login with Google

Why sign up and log in

Guitar Tabs Explorer
Ugly Kid Joe guitar tabs for Every thing about you

Guitar tabs

"Everything about you" / Ugly Kid Joe
Tab transcription by Mark van 't Zet (tmvtzet@cs.vu.nl)



INTRO - Main riff and variations, clean guitar

----------------------------------------------------------------
--3-------------------------3-----------------------------------
--2----------2--------------2---------2-------------------------
--0----------2--------------0---------2-------------------------
-------2-----0-----0--2--0-------2----0----0--/10--0--9--7------
----------3------------------------3----------------------------

--------2----------------5---------------3----------------|
------3------------------------------------2--------------|
----2------------------2---------------------3----------2-| N.C
--0------------------2-----------------0----------------2-|
-------------2-----0----------0--2--0-------------2-----0-|
-----------------3-----------------------------------3----|


VERSE  - alternate between A chord diagramD MajorD and A chord diagramA majorA chords as above, kick in with
         distortion and power chords about halfway


CHORUS - Power chords A chord diagramG MajorG and A chord diagramA majorA

I get ....
I ....
I ..


BRIDGE - G, A chord diagramG#G# and A chord diagramA majorA arpeggio's with clean guitar

A chord diagramG MajorG                             A chord diagramG#G#
Some say ..
A chord diagramA majorA                                              A chord diagramG#G#
But ..
A chord diagramG MajorG
etc.

SOLO   - Could someone figure that out please? I'm really lazy.


FAST PART - Just chop some powerchords


ENDING - Two guitars, one ascending, one descending

-------------------------------------------|--------------------
-------------------------------------------|--3------------2/3--
-------------------------------------------|----2-2-4-2----1/2--
-------------------------------------------|--------------------
--5--5----9--9---10-10---11-11---12-12~~~--|--------------------
--10-10---8--8---7--7----6--6----5--5~~~~--|--------------------


Ugly Kid Joe - Everything about you solo's part.

Tab transcription by Rafael (rafael77@bol.com.br)

[SOLO]
E-------------------------------------------------------- --------------
B-------15----15---15---12-----------12--------12-------- 12----14------
G-------14~~~~~-------------12--14--------14--------14--- -----------14-
D-------------------------------------------------------- --------------
A-------------------------------------------------------- --------------
E-------------------------------------------------------- --------------

E-------------------------------------------------
B-------15----15---15---12-----------12--------12-
G-------14~~~~~-------------12--14--------14------
D-------------------------------------------------
A-------------------------------------------------
E-------------------------------------------------


E---------15----14---12--
B------------------------
G------------14----------
D------------------------
A------------------------
E------------------------


E----------------------------------
B-------15----15---15---12---------
G-------14~~~~~-------------12--14-
D----------------------------------
A----------------------------------
E----------------------------------


E-----------------------------------------
B-------12-14-12-11-------------12--------
G-------------------14-12-12-14----14----- (parte mais rĂ¡pida)
D-----------------------------------------
A-----------------------------------------
E-----------------------------------------


E--------------------13---13-15^17-15^17-15^17-15^17\-
B-------15^17-15^17-----------------------------------
G----------------------14-----------------------------
D-----------------------------------------------------
A-----------------------------------------------------
E-----------------------------------------------------


E----------------------------------------9--10--12---10-- 9-
B---------12---13---15---13---12-------10-10--10---10-- 10--
G-------12---12----12---12--12--------------------------- --
D-------------------------------------------------------- --
A-------------------------------------------------------- --
E-------------------------------------------------------- --

E-------------------------------------------------
B---------------------------------3---4---5~~~~---
G--------4--5---7---5---4--------3--3---3---------
D-------5--5--5---5---5---------------------------
A-------------------------------------------------
E-------------------------------------------------

E--------------------------------------------15---------- ---
B---------12---13---15---13---12----------17b21-21b23r17 \15-
G-------12---12----12---12--12---12/14------------------- ---
D-------------------------------------------------------- ---
A-------------------------------------------------------- ---
E-------------------------------------------------------- ---

rafael77@bol.com.br

Almost there ...

Sign in to get your own page with links to favourite songs and more. You are just one click away...

Login with Facebook Login with Google