Log in

One click and you are in

Login with Facebook Login with Google

Why sign up and log in

Guitar Tabs Explorer
Ugly Kid Joe guitar tabs for Devils paradise

Guitar tabs

DEVIL'S PARADISE - Ugly Kid Joe
-------------------------------
Tuning: Drop A chord diagramC majorC

[Intro without drums]
D|---------------------------------|---------------------------------|
A|---------------------------------|---------------------------------|
F|---------------------------------|---------------------------------|  3x
C|-0h2-----------------------------|-0h2-----------------------------|
G|-----------------------------0---|-------------------------0---1-0-|
C|-----2-2-2-2-0-2-2-2-2-2-5-2---2-|-----2-2-2-2-0-2-2-2-2-2---2-----|

D|---------------------------------|-------------------------------|
A|---------------------------------|-------------------------------|
F|---------------------------------|-------------------------------|
C|-0h2-----------------------------|-0h2---------------------------|
G|-----------------------------0---|-------------------------------|
C|-----2-2-2-2-0-2-2-2-2-2-5-2---2-|-----2-2-2-2-0-2---5-7-5-8-7-5-|


[Intro with drums]
D|---------------------------------|---------------------------------|
A|---------------------------------|---------------------------------|
F|---------------------------------|---------------------------------|  3x
C|-0h2-----------------------------|-0h2-----------------------------|
G|-----------------------------0---|-------------------------0---1-0-|
C|-----2-2-2-2-0-2-2-2-2-2-5-2---2-|-----2-2-2-2-0-2-2-2-2-2---2-----|

D|---------------------------------|-------------------------------|
A|---------------------------------|-------------------------------|
F|---------------------------------|-------------------------------|
C|-0h2-----------------------------|-0h2---------------------------|
G|-----------------------------0---|-------------------------------|
C|-----2-2-2-2-0-2-2-2-2-2-5-2---2-|-----2-2-2-2-0-2---5-7-5-8-7-5-|

[Rythm guitar on solo part]
D|-----------------------------|-----------------------------|
A|-----------------------------|-----------------------------|
F|-----------------------------|-----------------------------|
C|-0h2---------------------5-7-|-0h2---------------------7-8-|
G|-------------------------5-7-|-------------------------7-8-|
C|-----2-2-2-2-0-2-2-2-2-2-5-7-|-----2-2-2-2-0-2-2-2-2-2-7-8-|

D|-----------------------------|-------------------------------|
A|-----------------------------|-------------------------------|
F|-----------------------------|-------------------------------|
C|-0h2---------------------5-7-|-0h2---------------------------|
G|-------------------------5-7-|-------------------------------|
C|-----2-2-2-2-0-2-2-2-2-2-5-7-|-----2-2-2-2-0-2---5-7-5-8-7-5-|

D|-----------------------------|-----------------------------|
A|-----------------------------|-----------------------------|
F|-----------------------------|-----------------------------|
C|-0h2---------------------5-7-|-0h2---------------------7-8-|
G|-------------------------5-7-|-------------------------7-8-|
C|-----2-2-2-2-0-2-2-2-2-2-5-7-|-----2-2-2-2-0-2-2-2-2-2-7-8-|

D|-----------------------------|-------------------------------|
A|-----------------------------|-------------------------------|
F|-----------------------------|-------------------------------|
C|-0h2---------------------5-7-|-0h2---------------------------|
G|-------------------------5-7-|-------------------------------|
C|-----2-2-2-2-0-2-2-2-2-2-5-7-|-----2-2-2-2-0-2---5-7-5-8-7-5-|


[Lead guitar on solo part]
D|-----|-----|-----|-------|-12~~~~~~-|----12-15p12--------------------|
A|-/12-|-/11-|-/10-|-------|----------|-15----------15p12-------12~~~~-|
F|-----|-----|-----|-7b9---|----------|-------------------14p12--------|
C|-----|-----|-----|-------|----------|--------------------------------|
G|-----|-----|-----|-------|----------|--------------------------------|
C|-----|-----|-----|-------|----------|--------------------------------|

D|----------------------------|-------------------------|
A|----------------------------|-------------------------|
F|-12h14h12-15p14p12----14p12-|----12h14-15p14p12-------|
C|-------------------14-------|-14----------------12h14-|
G|----------------------------|-------------------------|
C|----------------------------|-------------------------|


[Verse 1]
D|----------------|------------------|----------------|------------------|
A|----------------|------------------|----------------|------------------|
F|----------------|------------------|----------------|------------------|
C|----------------|------------------|----------------|------------------|
G|-0-2----0-2-2---|-0-2----0-2-2-5-7-|-0-2----0-2-2---|-0-2----0-2-2-7-8-|
C|-0-2----0-2-2---|-0-2----0-2-2-5-7-|-0-2----0-2-2---|-0-2----0-2-2-7-8-|

D|----------------|------------------|----------------|------------------|
A|----------------|------------------|----------------|------------------|
F|----------------|------------------|----------------|------------------|
C|----------------|------------------|----------------|------------------|
G|-0-2----0-2-2---|-0-2----0-2-2-5-7-|-0-2----0-2-2---|-0-2----0-2-2-8-7-|
C|-0-2----0-2-2---|-0-2----0-2-2-5-7-|-0-2----0-2-2---|-0-2----0-2-2-8-7-|


[Chorus without vocals]
D|-----------------------------|-----------------------------|
A|-----------------------------|-----------------------------|
F|-----------------------------|-----------------------------|
C|-0h2---------------------5-7-|-0h2---------------------7-8-|
G|-------------------------5-7-|-------------------------7-8-|
C|-----2-2-2-2-0-2-2-2-2-2-5-7-|-----2-2-2-2-0-2-2-2-2-2-7-8-|

D|-----------------------------|-------------------------------|
A|-----------------------------|-------------------------------|
F|-----------------------------|-------------------------------|
C|-0h2---------------------5-7-|-0h2---------------------------|
G|-------------------------5-7-|-------------------------------|
C|-----2-2-2-2-0-2-2-2-2-2-5-7-|-----2-2-2-2-0-2---5-7-5-8-7-5-|


[Verse 2]
D|----------------|------------------|----------------|------------------|
A|----------------|------------------|----------------|------------------|
F|----------------|------------------|----------------|------------------|
C|----------------|------------------|----------------|------------------|
G|-0-2----0-2-2---|-0-2----0-2-2-5-7-|-0-2----0-2-2---|-0-2----0-2-2-7-8-|
C|-0-2----0-2-2---|-0-2----0-2-2-5-7-|-0-2----0-2-2---|-0-2----0-2-2-7-8-|

D|----------------|------------------|----------------|------------------|
A|----------------|------------------|----------------|------------------|
F|----------------|------------------|----------------|------------------|
C|----------------|------------------|----------------|------------------|
G|-0-2----0-2-2---|-0-2----0-2-2-5-7-|-0-2----0-2-2---|-0-2----0-2-2-8-7-|
C|-0-2----0-2-2---|-0-2----0-2-2-5-7-|-0-2----0-2-2---|-0-2----0-2-2-8-7-|


[Chorus with vocals]
D|-----------------------------|-----------------------------|
A|-----------------------------|-----------------------------|
F|-----------------------------|-----------------------------|
C|-0h2---------------------5-7-|-0h2---------------------7-8-|
G|-------------------------5-7-|-------------------------7-8-|
C|-----2-2-2-2-0-2-2-2-2-2-5-7-|-----2-2-2-2-0-2-2-2-2-2-7-8-|

D|-----------------------------|-------------------------------|
A|-----------------------------|-------------------------------|
F|-----------------------------|-------------------------------|
C|-0h2---------------------5-7-|-0h2---------------------------|
G|-------------------------5-7-|-------------------------------|
C|-----2-2-2-2-0-2-2-2-2-2-5-7-|-----2-2-2-2-0-2---5-7-5-8-7-5-|

D|-----------------------------|-----------------------------|
A|-----------------------------|-----------------------------|
F|-----------------------------|-----------------------------|
C|-0h2---------------------5-7-|-0h2---------------------7-8-|
G|-------------------------5-7-|-------------------------7-8-|
C|-----2-2-2-2-0-2-2-2-2-2-5-7-|-----2-2-2-2-0-2-2-2-2-2-7-8-|

D|-----------------------------|-------------------------------|
A|-----------------------------|-------------------------------|
F|-----------------------------|-------------------------------|
C|-0h2---------------------5-7-|-0h2---------------------------|
G|-------------------------5-7-|-------------------------------|
C|-----2-2-2-2-0-2-2-2-2-2-5-7-|-----2-2-2-2-0-2---5-7-5-8-7-5-|


[Bridge]
D|---------|----------|
A|---------|----------|
F|---------|----------|
C|-2---5---|--8---7---|  4x
G|-2---5---|--8---7---|
C|-2---5---|--8---7---|


[Chorus with vocals]
D|-----------------------------|-----------------------------|
A|-----------------------------|-----------------------------|
F|-----------------------------|-----------------------------|
C|-0h2---------------------5-7-|-0h2---------------------7-8-|
G|-------------------------5-7-|-------------------------7-8-|
C|-----2-2-2-2-0-2-2-2-2-2-5-7-|-----2-2-2-2-0-2-2-2-2-2-7-8-|

D|-----------------------------|-------------------------------|
A|-----------------------------|-------------------------------|
F|-----------------------------|-------------------------------|
C|-0h2---------------------5-7-|-0h2---------------------------|
G|-------------------------5-7-|-------------------------------|
C|-----2-2-2-2-0-2-2-2-2-2-5-7-|-----2-2-2-2-0-2---5-7-5-8-7-5-|

D|-----------------------------|-----------------------------|
A|-----------------------------|-----------------------------|
F|-----------------------------|-----------------------------|
C|-0h2---------------------5-7-|-0h2---------------------7-8-|
G|-------------------------5-7-|-------------------------7-8-|
C|-----2-2-2-2-0-2-2-2-2-2-5-7-|-----2-2-2-2-0-2-2-2-2-2-7-8-|

D|-----------------------------|-------------------------------|
A|-----------------------------|-------------------------------|
F|-----------------------------|-------------------------------|
C|-0h2---------------------5-7-|-0h2---------------------------|
G|-------------------------5-7-|-------------------------------|
C|-----2-2-2-2-0-2-2-2-2-2-5-7-|-----2-2-2-2-0-2---5-7-5-8-7-5-|


[Outro]
D|---------------------|
A|---------------------|
F|---------------------|  8 Times
C|---------------------|
G|---2---5-2-----------|
C|---2---5-2--5--8-7-5-|


LEGEND
------
  h = Hammering on
  p = pull of
  b = bending
  ~ = vibrato

Almost there ...

Sign in to get your own page with links to favourite songs and more. You are just one click away...

Login with Facebook Login with Google