Log in

One click and you are in

Login with Facebook Login with Google

Why sign up and log in

Guitar Tabs Explorer
Ugly Casanova guitar chords for To roads to go to roads to go

To Roads To Go To Roads To Go chords by Ugly Casanova

Ugly Casanova guitar chords for To roads to go to roads to go

Guitar chords

Main acoustic part (for the Chorus and verses)
            A chord diagramG MajorG
e|-------------x--x-|
B|-------------x--x-|
G|----------4--x--x-|  (x4)
D|----------5--x--x-|
A|----------5--x--x-|
E|-1s3--3---3--x--x-|

and then play

      A chord diagramC majorC
e|----3----3---------3p0-----------------------------|
B|----5----5-------------3p0--1--0-----1p0-----------|
G|----5----5-------------------------------2p0-------|
D|----5----5------------------------------------2p0--|
A|----3----3-----------------------------------------|
E|----3----3-----------------------------------------|

Almost there ...

Sign in to get your own page with links to favourite songs and more. You are just one click away...

Login with Facebook Login with Google