Log in

One click and you are in

Login with Facebook Login with Google

Why sign up and log in

Guitar Tabs Explorer
Ugly Casanova guitar chords for Smoke like ribbons

Guitar chords with lyrics

Smoke Like Ribbons - Ugly Casanova (Sharpen Your Teeth, 2002)

Chords used:

    A chord diagramDmDm     A chord diagramFF      A chord diagramBb majorBb     A chord diagramBbmaj7Bbmaj7
e|--1------1------1------1---|
B|--3------1------3------3---|
G|--2------2------3------2---|
D|--0------3------3------3---|
A|---------3------1------1---|
E|---------1-----------------|
Intro/Chorus

The intro and chorus is played like a A chord diagramDmDm while alternating between the bass notes
A chord diagramD MajorD and A. So be sure to strum the A chord diagramDmDm chord and not just play it once because the
tab below does not include the strumming pattern!

  A chord diagramDmDm
e|-----1-----1-----1-----1-------1-----1-----1-----1-----|
B|-----3-----3-----3-----3-------3-----3-----3-----3-----|
G|-----2-----2-----2-----2----2--2-----2-----0-----2-----|  part A chord diagramA majorA
D|--0-----------0-------------------3-----2--------------|
A|--------0-----------0-------------------------3--------|
E|-------------------------------------------------------|

e|-----1-----1-----1-----1-------1-----1-----1-----1-----|
B|-----3-----3-----3-----3-------3-----3-----3-----3-----|
G|-----2-----2-----2-----2----2--2-----2-----0--0--------|  part A chord diagramBB
D|--0-----------0-------------------3-----2--------------|
A|--------0-----------0----------------------------------|
E|-------------------------------------------------------|


Verse:

A chord diagramFF
Smoke was pulled in ribbons
         A chord diagramBb majorBb
From the windows of the car
               A chord diagramFF                         A chord diagramBb majorBb
I followed the flash of silver from your teeth
          A chord diagramFF                           A chord diagramBb majorBb
Above the tarmac, the lights were icy-green
          A chord diagramFF                        A chord diagramBb majorBb
Buried in patterns in your chest a quiet shimmering
       A chord diagramFF                      A chord diagramBb majorBb                                A chord diagramDmDm
Little dipper, tiara-shine, a song bird shivering, a thin, thin dime

Chorus:

A chord diagramDmDm                   (Play intro riffs along with line, part A chord diagramA majorA 3 times then part A chord diagramBB 1 time)
Smoke like ribbons   (x4)

A chord diagramFF
Songs were pulled like ribbons
        A chord diagramBb majorBb
From the window of the car
A chord diagramFF                                   A chord diagramBb majorBb
Lost along the shoulders of the highway
          A chord diagramFF                            A chord diagramBb majorBb
Cake walk dancers unwind from their spin
         A chord diagramFF
Singing,   Lordy, Lordy loved him
         A chord diagramBb majorBb                           A chord diagramFF
           Stark don't give a flat fuck

           Lordy, Lordy loved him
         A chord diagramBb majorBb                           A chord diagramFF
           Stark don't give a flat fuck

           Lordy, Lordy loved him
         A chord diagramBbmaj7Bbmaj7                       A chord diagramDmDm
           Stark don't give a flat fuck


A chord diagramDmDm
Smoke like ribbons    (repeat with intro riff until you're done)

Almost there ...

Sign in to get your own page with links to favourite songs and more. You are just one click away...

Login with Facebook Login with Google