Search tabs and chords

Search for song, artist or band

Log in

One click and you are in

Login with Facebook Login with Google

Why sign up and log in

Guitar Tabs Explorer
Ugly Casanova guitar chords for Smoke like ribbons

Guitar chords with lyrics

Smoke Like Ribbons - Ugly Casanova (Sharpen Your Teeth, 2002)

Chords used:

    Dm chord diagramDmDm     F chord diagramFF      Bb chord diagramBbBb     Bbmaj7
e|--1------1------1------1---|
B|--3------1------3------3---|
G|--2------2------3------2---|
D|--0------3------3------3---|
A|---------3------1------1---|
E|---------1-----------------|

Intro/Chorus

The intro and chorus is played like a Dm chord diagramDmDm while alternating between the bass notes
D chord diagramDD and A chord diagramAA. So be sure to strum the Dm chord diagramDmDm chord and not just play it once because the
tab below does not include the strumming pattern!

  Dm chord diagramDmDm
e|-----1-----1-----1-----1-------1-----1-----1-----1-----|
B|-----3-----3-----3-----3-------3-----3-----3-----3-----|
G|-----2-----2-----2-----2----2--2-----2-----0-----2-----|  part A chord diagramAA
D|--0-----------0-------------------3-----2--------------|
A|--------0-----------0-------------------------3--------|
E|-------------------------------------------------------|

e|-----1-----1-----1-----1-------1-----1-----1-----1-----|
B|-----3-----3-----3-----3-------3-----3-----3-----3-----|
G|-----2-----2-----2-----2----2--2-----2-----0--0--------|  part B chord diagramBB
D|--0-----------0-------------------3-----2--------------|
A|--------0-----------0----------------------------------|
E|-------------------------------------------------------|

Verse:

F chord diagramFF
Smoke was pulled in ribbons
         Bb chord diagramBbBb
From the windows of the car
               F chord diagramFF                         Bb chord diagramBbBb
I followed the flash of silver from your teeth
          F chord diagramFF                           Bb chord diagramBbBb
Above the tarmac, the lights were icy-green
          F chord diagramFF                        Bb chord diagramBbBb
Buried in patterns in your chest a quiet shimmering
       F chord diagramFF                      Bb chord diagramBbBb                                Dm chord diagramDmDm
Little dipper, tiara-shine, a song bird shivering, a thin, thin dime

Chorus:

Dm chord diagramDmDm                   (Play intro riffs along with line, part A chord diagramAA 3 times then part B chord diagramBB 1 time)
Smoke like ribbons   (x4)

F chord diagramFF
Songs were pulled like ribbons
        Bb chord diagramBbBb
From the window of the car
F chord diagramFF                                   Bb chord diagramBbBb
Lost along the shoulders of the highway
          F chord diagramFF                            Bb chord diagramBbBb
Cake walk dancers unwind from their spin
         F chord diagramFF
Singing,   Lordy, Lordy loved him
         Bb chord diagramBbBb                           F chord diagramFF
           Stark don't give a flat fuck

           Lordy, Lordy loved him
         Bb chord diagramBbBb                           F chord diagramFF
           Stark don't give a flat fuck

           Lordy, Lordy loved him
         Bbmaj7                       Dm chord diagramDmDm
           Stark don't give a flat fuck


Dm chord diagramDmDm
Smoke like ribbons    (repeat with intro riff until you're done)

Almost there ...

Sign in to get your own page with links to favourite songs and more. You are just one click away...

Login with Facebook Login with Google