Log in

One click and you are in

Login with Facebook Login with Google

Why sign up and log in

Guitar Tabs Explorer
Ugly Casanova guitar tabs for Diggin holes

Guitar tabs

Note:
These chords: e|------| Are played with these fingers (I=index, M=middle, R=ring, p=pinkie): e|------|
              B|-10-8-|                                                                      B|-P--I-|
              G|-0--0-|                                                                      G|-0--0-|
              D|-x--x-|                                                                      D|-x--x-|
              A|-9--9-|                                                                      A|-M--M-|
              E|-10-10|                                                                      E|-R--R-|
   ? ? ? ?  ? ? ? ? ?  ?   ? ?    ?  ?   ?  ?  ?  ?  ?  ?
e|-----------------------|---------------------------------|
B|----------8-8-8-8-8----|---------------10-10-10-10-10-8--|
G|----------0-0-0-0-0----|---------------0--0--0--0--0--0--|
D|----------x-x-x-x-x----|--------9--9---9--9--9--9--9--9--|
A|-----7-7--7-7-7-7-7--7-|-7-8s10-10-10--10-10-10-10-10-10-|
E|-5-7-8-8--8-8-8-8-8--8-|---------------------------------|

   ? ? ?  ?   ?  ?  ?  ?  ?  ?    ?  ?   ? ? ?  ? ?  ?
e|------------------------------|----------------------|
B|------------10-10-10-10-10-8--|----------------------|
G|------------0--0--0--0--0--0--|--------x-x-9b-x-9b-9-|
D|------------x--x--x--x--x--x--|--------x-x-x--x-x--x-|
A|-----9--9---9--9--9--9--9--9--|-9--9s7-7-7-7b-7-7b-7-|
E|-7-9-10-10--10-10-10-10-10-10-|-10-------------------|


************************************
|? Strum Down
|? Strum Up
|s Slide
|x Dead Note
|b Bend Note

Almost there ...

Sign in to get your own page with links to favourite songs and more. You are just one click away...

Login with Facebook Login with Google