Search tabs and chords

Search for song, artist or band

Log in

One click and you are in

Login with Facebook Login with Google

Why sign up and log in

Guitar Tabs Explorer
Ufo guitar tabs for Lookin out for no 1

Guitar tabs

Obsession (Chrysalis)
Produced By Ron Nevison
Released in 1978

Guitar 1: Distorted Electric Lead
Guitar 2: Distorted Electric Rhythm

Verse (Guitar 1 w/ Volume Knob On 2)

e|-----------------------------------------------------------------------|
B|-----------------------------------------------------------------------|
G|--11p(10)-11-8~~-11-10-8----------11p(10)-11-8~~-11-10-8---------------|
D|-----------------------11~~-9~~-----------------------11-9-----8~~-----|
A|-----------------------------------------------------------9-11--------|
E|-----------------------------------------------------------------------|

                                            Chorus (Guitar 2)
e|----------------||-------------------------------------------------|
B|----------------||-------------------------------------------------|
G|----------------||4-4-4-4-4-4-4-4-4-4-4-4--9------------------9----|
D|-6~~~-6/8-4~~~~~||4-4-4-4-4-4-4-4-4-4-4-4--9---7--------------9---7|
A|----------------||2-2-2-2-2-2-2-2-2-2-2-2--7---7--------------7---7|
E|----------------||-------------------------0---5---/5-4-2-0---0---5|

                                                                                        Bridge
e|-----------------------------------||-------------------------------------|
B|-----------------------------------||-------------------------------------|
G|-----------------------------------||-7-7---------7-7---------9-9------11-|
D|--------------------7---9-9-7---9-9||-7-7---7-7---7-7---7-7---9-9--9-9-11-|
A|-----------6-4~~-4--7---9-9-7---9-9||-5-5---7-7---5-5---7-7---7-7--9-9--9-|
E|/9-7-5-4~-4---------5-0-7-7-5-0-7-7||--------5-5---------5-5--------7-7---|

            Solo (Guitar 1 w/Full Volume)
e|---|---------------------------------------------------------------------------------|
B|---|---------------------------------------------------------------------------------|
G|13-|-13b(15)~~-13b(15)r(13)p(11)-13~~~-11-13b(15)r(13)p11-----11-13b(15)r(13)p11-----|
D|13-|----------------------------------------------13~~~---------------12~------------|
A|11-|---------------------------------------------------------------------------------|
E|---|---------------------------------------------------------------------------------|

e|--------------------------------21-----------21(23)-21(23)~~-21b(23)-21-19~~~------|
B|----19-21-21b(23)-21b(23)~~-21b(23)--(23)r(21)p(19)--------------------------------|
G|-/18-------------------------------------------------------------------------------|
D|-----------------------------------------------------------------------------------|
A|-----------------------------------------------------------------------------------|
E|-----------------------------------------------------------------------------------|

  Solo (Guitar 2)
e|------------------------||
B|------------------------||
G|11-11---9-9---8-8---7-7-||
D|11-11---9-9---8-8---7-7-||
A|-9--9---7-7---6-6---5-5-||
E|------------------------||

Order

Verse-x1
Chorus-x1
Verse-x2
Chorus-x1
Bridge-x1
Solo-x1
Chorus-x2
Verse-x2

Almost there ...

Sign in to get your own page with links to favourite songs and more. You are just one click away...

Login with Facebook Login with Google