Log in

One click and you are in

Login with Facebook Login with Google

Why sign up and log in

Guitar Tabs Explorer
Ufo bass tabs for Getting ready

Bass tabs

-------------------------------------------------------------------------------
                             Getting Ready - UFO
-------------------------------------------------------------------------------
Tabbed by: David Etheridge
E-mail: david_l_etheridge@yahoo.com
Tuning: Standard


Intro
G||---------|---------|---------|---------|---------|---------|---------|---------||
D||---------|---------|---------|---------|---------|---------|---------|---------||
A||---------|---------|---------|---------|---------|---------|---------|---------||
E||---------|---------|5---5---/|---------|5---5-5--|3--2--/--|5---5-5--|3--2--/--||


Verse 1
G||---------|---------|---------|---------|---------|---------|---------|---------||
D||---------|---------|---------|---------|---------|---------|---------|---------||
A||---------|-----5---|---------|----5--5-|---------|-----5---|---------|-----5-5-||
E||5---5-5--|3-3------|5---5-5--|3-3------|5---5-5--|3-3------|5---5-5--|3-3------||


Chorus
G||---------|---------|---------|---------|---------|---------|---------|---------||
D||---------|---------|---------|---------|---------|---------|---------|---------||
A||---------|-----5-5-|---------|-----5-5-|---------|-----5-5-|---------|---------||
E||5---5-5-5|3-3-3----|5---5-5-5|3-3-3----|5---5-5-5|3-3-3----|5---5-5--|3--2--/--||

Fill
G||---------|---------||
D||---------|---------||
A||---------|---------||
E||5---5----|3--2--/--||

Verse 2
G||---------|---------|---------|---------|---------|---------|---------|---------||
D||---------|---------|---------|---------|---------|---------|---------|---------||
A||---------|-----5---|---------|----5--5-|---------|-----5---|---------|-----5-5-||
E||5---5-5--|3-3------|5---5-5--|3-3------|5---5-5--|3-3------|5---5-5--|3-3------||


Chorus
G||---------|---------|---------|---------|---------|---------|---------|---------||
D||---------|---------|---------|---------|---------|---------|---------|---------||
A||---------|-----5-5-|---------|-----5-5-|---------|-----5-5-|---------|5---4--2-||
E||5---5-5-5|3-3-3----|5---5-5-5|3-3-3----|5---5-5-5|3-3-3----|5---5-5--|---------||

Fill
G||---------|---------||
D||---------|---------||
A||---------|---------||
E||5---5--/-|3--2--/--||


Verse 3
G||---------|---------|---------|---------|---------|---------|---------|---------||
D||---------|---------|---------|---------|---------|---------|---------|---------||
A||---------|-----5---|---------|----5--5-|---------|-----5---|---------|-----5-5-||
E||5---5-5--|3-3------|5---5-5--|3-3------|5---5-5--|3-3------|5---5-5--|3-3------||


Chorus
G||---------|---------|---------|---------|---------|---------|---------|---------||
D||---------|---------|---------|---------|---------|---------|---------|---------||
A||---------|-----5-5-|---------|-----5-5-|---------|-----5-5-|---------|------5-6||
E||5---5-5-5|3-3-3----|5---5-5-5|3-3-3----|5---5-5-5|3-3-3----|5---5-5--|5-5-5----||


Bridge
||---------------|---------------|----------------|--------||
||---------------|---------------|----------------|--------||
||7-7-7-7-7-7-7-7|7-7-7-7-7-7-7-7|5-5-5-5-5-5-5-5-|5--4-2--||
||---------------|---------------|----------------|--------||

||---------------|---------------|----------------|--------||
||---------------|---------------|----------------|--------||
||7-7-7-7-7-7-7-7|7-7-7-7-7-7-7-7|5-5-5-5-5-5-5-5-|5--4----||
||---------------|---------------|----------------|--------||


Solo X4                                     Solo End
G||-------|--------|--------|-------|| ||--------||
D||-------|--------|2-------|------\|| ||--------||
A||2------|-----2/-|--------|-------|| ||2-2-2-2-||
E||-------|--------|--------|-------|| ||--------||


Verse 4
G||---------|---------|---------|---------|---------|---------|---------|---------||
D||---------|---------|---------|---------|---------|---------|---------|---------||
A||---------|-----5---|---------|----5--5-|---------|-----5---|---------|-----5-5-||
E||5---5-5--|3-3------|5---5-5--|3-3------|5---5-5--|3-3------|5---5-5--|3-3------||


Chorus
G||---------|---------|---------|---------|---------|---------|---------|---------||
D||---------|---------|---------|---------|---------|---------|---------|---------||
A||---------|-----5-5-|---------|-----5-5-|---------|-----5-5-|---------|---------||
E||5---5-5-5|3-3-3----|5---5-5-5|3-3-3----|5---5-5-5|3-3-3----|5---5-5--|3--2--/--||

End
G||---------|---------|---------|---------|---------|---------||
D||---------|---------|---------|---------|---------|---------||
A||---------|---------|---------|---------|---------|---------||
E||5---5--/-|3--2--/--|5---5--/-|3--2--/--|5---5--/-|3--2-----||

| /  slide up
| \  slide down
| h  hammer-on
| p  pull-off
| ~  vibrato
| +  harmonic
| x  Mute note

Almost there ...

Sign in to get your own page with links to favourite songs and more. You are just one click away...

Login with Facebook Login with Google