Search tabs and chords

Search for song, artist or band

Log in

One click and you are in

Login with Facebook Login with Google

Why sign up and log in

Guitar Tabs Explorer
Ufo guitar tabs for Built for comfort

Guitar tabs

Tabbed by: Walter R.B


Key:

 h     hammer-on
 ~     vibrato

Rhythm Guitar

0:01
e|------------------------------------------------|
B|------------------------------------------------|
G|---5--------------------------------------------|
D|------------------------------------------------|
A|3-----------------------------------------------|
E|------------------------------------------------|
(Pause between each note)

0:04
e|------------------------------------------------|
B|-----4------------------------------------------|
G|3h5-----5~--------------------------------------|
D|---------------3-5-1----------------------------|
A|---------------------3~-------------------------|
E|------------------------------------------------|

0:09
e|------------------------------------------------|
B|---6--------------------------------------------|
G|------------------------------------------------|
D|3-----------------------------------------------|
A|------------------------------------------------|
E|------------------------------------------------|
(Pause between each note)

0:12
e|------------------------------------------------|
B|-----4------------------------------------------|
G|3h5-----5~--------------------------------------|
D|---------------3-5-1----------------------------|
A|---------------------3~-------------------------|
E|------------------------------------------------|

0:17
e|------------------------------------------------|
B|------------------------------------------------|
G|------------------------------------------------|
D|5--3--------------------------------------------|
A|------------------------------------------------|
E|------------------------------------------------|
(Pause between each note)

0:21
e|------------------------------------------------|
B|-----4------------------------------------------|
G|3h5-----5~--------------------------------------|
D|---------------3-5-1----------------------------|
A|---------------------3~-------------------------|
E|------------------------------------------------|

0:26
e|------------------------------------------------|
B|------------------------------------------------|
G|------------------------------------------------|
D|------------3--3--------------------------------|
A|3--3--3--3--------------------------------------|
E|------------------------------------------------|
(Pause between each note)

0:37
e|------------------------------------------------|
B|-----4------------------------------------------|
G|3h5-----5~--------------------------------------|
D|---------------3-5-1----------------------------|
A|---------------------3~-------------------------|
E|------------------------------------------------|

0:43
e|------------------------------------------------|
B|------------------------------------------------|
G|------------------------------------------------|
D|5--3--------------------------------------------|
A|------------------------------------------------|
E|------------------------------------------------|
(Pause between each note)

0:46
e|------------------------------------------------|
B|-----4------------------------------------------|
G|3h5-----5~--------------------------------------|
D|---------------3-5-1----------------------------|
A|---------------------3~-------------------------|
E|------------------------------------------------|

0:51
e|------------------------------------------------|
B|------------------------------------------------|
G|------------------------------------------------|
D|------------3--3--------------------------------|
A|3--3--3--3--------------------------------------|
E|------------------------------------------------|
(Pause between each note)

1:02
e|------------------------------------------------|
B|-----4------------------------------------------|
G|3h5-----5~--------------------------------------|
D|---------------3-5-1----------------------------|
A|---------------------3~-------------------------|
E|------------------------------------------------|

1:08
e|------------------------------------------------|
B|------------------------------------------------|
G|------------------------------------------------|
D|5--3--------------------------------------------|
A|------------------------------------------------|
E|------------------------------------------------|
(Pause between each note)

1:11
e|------------------------------------------------|
B|-----4------------------------------------------|
G|3h5-----5~--------------------------------------|
D|---------------3-5-1----------------------------|
A|---------------------3~-------------------------|
E|------------------------------------------------|

1:15
e|------------------------------------------------|
B|-----4------------------------------------------|
G|3h5-----5~--------------------------------------| (x2)
D|---------------3-5-1----------------------------|
A|---------------------3~-------------------------|
E|------------------------------------------------|

1:24
e|------------------------------------------------|
B|---6--------------------------------------------|
G|------------------------------------------------|
D|3-----------------------------------------------|
A|------------------------------------------------|
E|------------------------------------------------|
(Pause between each note)

1:27
e|------------------------------------------------|
B|-----4------------------------------------------|
G|3h5-----5~--------------------------------------|
D|---------------3-5-1----------------------------|
A|---------------------3~-------------------------|
E|------------------------------------------------|

1:33
e|------------------------------------------------|
B|------------------------------------------------|
G|------------------------------------------------|
D|5--3--------------------------------------------|
A|------------------------------------------------|
E|------------------------------------------------|
(Pause between each note)

1:36
e|------------------------------------------------|
B|-----4------------------------------------------|
G|3h5-----5~--------------------------------------|
D|---------------3-5-1----------------------------|
A|---------------------3~-------------------------|
E|------------------------------------------------|

1:41
e|------------------------------------------------|
B|------------------------------------------------|
G|------------------------------------------------|
D|------------3--3--------------------------------|
A|3--3--3--3--------------------------------------|
E|------------------------------------------------|
(Pause between each note)

1:52
e|------------------------------------------------|
B|-----4------------------------------------------|
G|3h5-----5~--------------------------------------|
D|---------------3-5-1----------------------------|
A|---------------------3~-------------------------|
E|------------------------------------------------|

1:58
e|------------------------------------------------|
B|------------------------------------------------|
G|------------------------------------------------|
D|5--3--------------------------------------------|
A|------------------------------------------------|
E|------------------------------------------------|
(Pause between each note)

2:01
e|------------------------------------------------|
B|-----4------------------------------------------|
G|3h5-----5~--------------------------------------|
D|---------------3-5-1----------------------------|
A|---------------------3~-------------------------|
E|------------------------------------------------|

2:06
e|------------------------------------------------|
B|------------------------------------------------|
G|------------------------------------------------|
D|------------3--3--------------------------------|
A|3--3--3--3--------------------------------------|
E|------------------------------------------------|
(Pause between each note)

2:17
e|------------------------------------------------|
B|-----4------------------------------------------|
G|3h5-----5~--------------------------------------|
D|---------------3-5-1----------------------------|
A|---------------------3~-------------------------|
E|------------------------------------------------|

2:23
e|------------------------------------------------|
B|------------------------------------------------|
G|------------------------------------------------|
D|5--3--------------------------------------------|
A|------------------------------------------------|
E|------------------------------------------------|
(Pause between each note)

2:26
e|------------------------------------------------|
B|-----4------------------------------------------|
G|3h5-----5~--------------------------------------| (x2)
D|---------------3-5-1----------------------------|
A|---------------------3~-------------------------|
E|------------------------------------------------|

Then repeat what is says below and fade out.

2:35
e|------------------------------------------------|
B|------------------------------------------------|
G|---5--------------------------------------------|
D|------------------------------------------------|
A|3-----------------------------------------------|
E|------------------------------------------------|
(Pause between each note)

2:38
e|------------------------------------------------|
B|-----4------------------------------------------|
G|3h5-----5~--------------------------------------|
D|---------------3-5-1----------------------------|
A|---------------------3~-------------------------|
E|------------------------------------------------|

Almost there ...

Sign in to get your own page with links to favourite songs and more. You are just one click away...

Login with Facebook Login with Google