Log in

One click and you are in

Login with Facebook Login with Google

Why sign up and log in

Guitar Tabs Explorer
Udo guitar tabs for In the darkness

Guitar tabs

-------------------------------------------------------------------------------
        UDO- In the Darkness from Animal House 1987
-------------------------------------------------------------------------------
Tabbed by:NihilView
E-mail:

Tuning:E STANDARD
     LET RING:acoustic guitar

e|----------------------------------------------------------------------------------|
B|-----------------------------------------------------------------------------0----|INTRO
G|----------5------------------4------------------2-------------------------0-------|
D|------7-------7-----------5-----5-----------3-------3----------3------------------|
A|--0-------------------0-----------------0------------------0----------0-----------|
E|----------------------------------------------------------------------------------|


       A chord diagramC majorC             A chord diagramG MajorG                          A chord diagramD MajorD            A chord diagramA majorA
e|----------------------------3-------------------------------------0------------|
B|-------------1------------------0-------------------3----------------1---------|VERSE
G|----------0-------------------------0------------2----------------------2------|
D|-------2--------------------------------------0--------------2-----------------|
A|----3-------------------2---------------------------------0--------------------|
E|--------------------3----------------------------------------------------------|


    A chord diagramFF            A chord diagramG MajorG               A chord diagramA majorA
e|---------1------------3--------0----------------------------------------------|
B|---------1------------3--------1----------------------------------------------|
G|---------2------------4--------2----------------------------------------------|
D|---------3------------5--------2----------------------------------------------|
A|------3------------5-----------0----------------------------------------------|
E|---1-----------3--------------------------------------------------------------|


 AFTER ACOUSTIC SECTION PLAY INTRO AND VERSE WITH DISTORTION GUITAR AND POWER CHORDS TO BRIDGE!


I------------------------------------------I
I------------------------------------------I BRIDGE BEFORE SOLO!
I------------------------------------------I
I-2-------2-------2-------2-------2--------I
I-2-------2-------2-------2-------2--------I
I-0--0-0--0--0-0--0--0-0--0--0-0--0--------I
    P.M.-------------------------


I--------------------------------------------------------------------------------------------------------
I------------------------------------------------17--------------------------------17-18-17-15-----------
I--14---16-17-vv---/-14--16-17-16--/--14--16-17--------------------------14-16-17--------------17-16-----
I---------------------------------------------------------------14-16-17---------------------------------
I------------------------------------------------------12-14-15------------------------------------------
I--------------------------------------------------------------------------------------------------------


I------------i--------------------------------------------------------------------------------------
I------------i--------------------------------------------------------------------------------------
I--14-16-17--i--9-10-9--7-9-----------------------------5------4------5-----4------5-4-5--7-br------
I------------i--------------10-7--9-10-9--7-9-vv---3-3-----3-3----3-3---3-3---3-3-------------------
I------------i--------------------------------------------------------------------------------------
I------------i--------------------------------------------------------------------------------------
                                                P.M--    P.M--  P.M--  P.M.-



I----------20br---22br---20-19-20---20br---19-17-19-----------------------------------------
I---20br-----------------------------------------------15b--13--12h13p12--------------------
I-----------------------------------------------------------------------------14br-14-------
I-------------------------------------------------------------------------------------------
I-------------------------------------------------------------------------------------------
I-------------------------------------------------------------------------------------------


I----------------------------------------------------------------------------------------
I----------------------------------------------------------------------------------------
I----------7-9-10---7-9------7----------------------------------------------4h5p4--------
I--7-9-10----------------10-----9--10-7--9-5--7-3--5-2------------------5-7-------7--5---
I-------------------------------------------------------2-3-2-3--5-----------------------
I------------------------------------------------------------------5-3--------------------


I----------------------------17b-16----------------------------16p-13--------------
I--18--17--15-----------------------18-17h-18-17-----------15----------15----------
I--------------17--16-14-13-------------------------13--16-----------------16------
I----------------------------------------------------------------------------------
I-----------------------------------------------------------------------------------
I-----------------------------------------------------------------------------------


I--------------19-p-16------------19-16-----------------------------------------------I
I----------18----------18---------------18--------------------------------------------I
I--16--19------------------19---------------19-16-------------------------------------I
I-------------------------------------------------18-15-------------------------------I
I-------------------------------------------------------17-14-------------------------I
I--------------------------------------------------------------16-13vv----------------I






************************************

| /   slide up
| \   slide down
| h   hammer-on
| p   pull-off
| ~   vibrato
| +   harmonic
| x   Mute note
| b   Bend
| pb  Pre-bend
| br  Bend release
| pbr Pre-bend release
| brb Bend release bend

************************************

Almost there ...

Sign in to get your own page with links to favourite songs and more. You are just one click away...

Login with Facebook Login with Google