Log in

One click and you are in

Login with Facebook Login with Google

Why sign up and log in

Guitar Tabs Explorer
Ub40 bass tabs for Rainbow nation

Bass tabs

Artist - UB40
Title - Rainbow Nation
Album - Twentyfourseven
Bass Tab

Tabbed by - mattydread2@yahoo.com
intro/verse
G|---------------------------------|
D|---------------------------------|
A|-------7-------7-------7-------7-|
E|-55558----5558---55558----5558---|

G|---------------------------------|
D|-------7-------7-----------------|
A|-55558----5558---------7-------7-|
E|-----------------55558----5558---|

G|---------------------------------|
D|---------------------------------|
A|-------7-------7-------7-------7-|
E|-55558----5558---55558----5558---|

G|---------------------------------|
D|-------7-------7-----------------|
A|-55558----5558---------7-------7-|
E|-----------------55558----5558---|


chorus
G|-------------------------------------|
D|-------7-------7---------9---------9-|
A|-55558----5558---7777,10----777,10---|
E|-------------------------------------|

G|-------------------------------------|
D|-------7-------7---------9---9-------|
A|-55558----5558---7777,10------10,7-7-|
E|-------------------------------------|

G|-------------------------------------|
D|-------7-------7---------9---------9-|
A|-55558----5558---7777,10----777,10---|
E|-------------------------------------|

G|-----------------------------------|
D|-------7-------7---------9---9-----|
A|-55558----5558---7777,10------10,7-|

Almost there ...

Sign in to get your own page with links to favourite songs and more. You are just one click away...

Login with Facebook Login with Google