Log in

One click and you are in

Login with Facebook Login with Google

Why sign up and log in

Guitar Tabs Explorer
Ub40 guitar tabs for Kingston town

Guitar tabs

Tabbed by - Richard Kelleher
Artist - UB40
Song - Kingston Town

Tuning - Standard(eadgbE)
Intro

e--4----3----4----6----|
b--4----4----6----8----|
g--5-4x-5-4x-6-4x-8-4x-|
d--6----5----6----8----|
a--6----3----4----6----|
E--4----3----x----x----|


Verse 1

e--4----3----4----6----4----6----4----6----|
b--4----4----6----8----6----8----4----8----|
g--5-4x-5-4x-6-4x-8-4x-6-4x-8-4x-5-4x-8-4x-|
d--6----5----6----8----6----8----6----8----|
a--6----3----4----6----4----6----6----6----|
E--4----3----x----x----x----x----4----x----|

e--4----3----4----6----4----6----4----|
b--4----4----6----8----6----8----4----|
g--5-4x-5-4x-6-4x-8-4x-6-4x-8-4x-5-8x-|
d--6----5----6----8----6----8----6----|
a--6----3----4----6----4----6----6----|
E--4----3----x----x----x----x----4----|


Chorus

e--3----1----3----3----1----4----6----|
b--4----1----3----4----1----6----8----|
g--5-4x-1-4x-3-4x-5-4x-1-8x-6-8x-8----|8x
d--5----3----5----5----3----6----8----|
a--3----3----5----3----3----4----6----|
e--3----1----3----3----1----x----x----|

verse 2

e--4----3----4----6----4----6----4----6----|
b--4----4----6----8----6----8----4----8----|
g--5-4x-5-4x-6-4x-8-4x-6-4x-8-4x-5-4x-8-4x-|
d--6----5----6----8----6----8----6----8----|
a--6----3----4----6----4----6----6----6----|
E--4----3----x----x----x----x----4----x----|

e--4----3----4----6----4----6----4----|
b--4----4----6----8----6----8----4----|
g--5-4x-5-4x-6-4x-8-4x-6-4x-8-4x-5-8x-|
d--6----5----6----8----6----8----6----|
a--6----3----4----6----4----6----6----|
E--4----3----x----x----x----x----4----|

Braidge 2x

e--4----3----4----6----|
b--4----4----6----8----|
g--5-4x-5-4x-6-4x-8-4x-|
d--6----5----6----8----|
a--6----3----4----6----|
E--4----3----x----x----|


Chorus 2

e--3----1----3----3----1----4----6----|
b--4----1----3----4----1----6----8----|
g--5-4x-1-4x-3-4x-5-4x-1-8x-6-8x-8----|8x
d--5----3----5----5----3----6----8----|
a--3----3----5----3----3----4----6----|
e--3----1----3----3----1----x----x----|


Verse 3

e--4----3----4----6----4----6----4----6----|
b--4----4----6----8----6----8----4----8----|
g--5-4x-5-4x-6-4x-8-4x-6-4x-8-4x-5-4x-8-4x-|
d--6----5----6----8----6----8----6----8----|
a--6----3----4----6----4----6----6----6----|
E--4----3----x----x----x----x----4----x----|

e--4----3----4----6----4----6----4----|
b--4----4----6----8----6----8----4----|
g--5-4x-5-4x-6-4x-8-4x-6-4x-8-4x-5-8x-|
d--6----5----6----8----6----8----6----|
a--6----3----4----6----4----6----6----|


so yea this is basically it ill do the intro and ending some other time.

Other versions of Kingston Town

Kingston townChords

Almost there ...

Sign in to get your own page with links to favourite songs and more. You are just one click away...

Login with Facebook Login with Google