Log in

One click and you are in

Login with Facebook Login with Google

Why sign up and log in

Guitar Tabs Explorer
Ub40 bass tabs for Kingston town

Bass tabs

Intro
G -----------------------------------------------------------|
D ------------------------------------66666------------------|
A --------66666---3---3-------3-4---4-------4-6---6-------6--|
E --4---4-------4-------33333-----------------------66666----|
Verse 1
G -----------------------------------------------------------|
D -----------------------------------------------------------|
A --------66666---3---3-------3-4---4-------4-6---6-------6--|
E --4---4-------4-------33333---------44444---------66666----|

G -----------------------------------------------------------|
D - -----------------------------------------------88888----|
A - 4 --4-------4-6---6-------6-------66666---6---6-------6--|
E ?- ----44444---------66666---4---4-------4----------------|

G -----------------------------------------------------------|
D -----------------------------------------------------------|
A --------66666---3---3-------3-4---4-------4-6---6-------6--|
E --4---4-------4-------33333---------44444---------66666----|

G -----------------------------------------------------------|
D - ---------------------------------------------- ? ? -----|
A - 4 --4-------4-6---6-------6-------66666-- --- --66666 ---|
E ?- ----44444---------66666---4---4-------4-4---4-------4--|


Chorus
G -----------------------------------------------------------|
D --------55555-------------------------------------55555----|
A --3---3-------3-------33333---------55555---3---3-------3--|
E ----------------1---1-------1-3---3-------3----------------|

G --------------------------|
D --------------------------|
A ---1/3---1/3---1/3---1/3--|
E -1-----1-----1-----1------|

G -------------------------------------------------------------|
D --------33333---------33333----------88888--8--68-6----------|
A --1---1-------1-1---1-------1--6---6-------6--------86868----|
E ----------------------------------------------------------8--|

Verse 2
G -----------------------------------------------------------|
D ------------------------------------------------- ? ? -----|
A --------66666---3---3-------3-4---4-------4-6---6-------6--|
E --4---4-------4-------33333---------44444---------66666----|

G -----------------------------------------------------------|
D --------------------- ? ? ------------------------88888----|
A --4---4-------4-6---6-------6-------66666---6---6 ? ? -----|
E --------44444---------66666---4---4-------4 --- --------4--|

G -----------------------------------------------------------|
D --------------------------------------------------88888----|
A --------66666---3---3-------3-4---4-------4-6---6-------6--|
E --4---4-------4-------33333---------44444------------------|

G -----------------------------------------------------------|
D ----------------------88888---------------------- ? ? -----|
A --4---4-------4-6---6-------6-------66666-- ?---- 66666----|
E --------44444-----------------4---4-------4 4-- 4-------4--|


Break
G -----------------------------------------------------------|
D -----------------------------------------------------------|
A --------66666---3---3-------3-4---4-------4-6---6-------6--|
E --4---4-------4-------33333---------44444---------66666----|

G ------------------------------------------------------------ -|
D ------------------------------------66666------6/8\6---6/8\6 -|
A --------66666---3---3-------3-4---4-------4--6------6-6--- --6|
E --4---4-------4-------33333-------------------------------- --|


Chorus 2
G -----------------------------------------------------------|
D --------55555-------------------------------------55555----|
A --3---3-------3-------33333---------55555---3---3-------3--|
E ----------------1---1-------1-3---3-------3----------------|

G --------------------------|
D --------------------------|
A ---1/3---1/3---1/3---1/3--|
E -1-----1-----1-----1------|

G -------------------------------------------------------------|
D --------33333---------33333----------88888--8686---------- ?-|
A --1---1-------1-1---1-------1--6---6-------6----8-6 86 ?--- -|
E -------------------------------------------------------86464-|


Outro
G -----------------------------------------------------------|
D ------------------------------------------------- ? ? -----|
A --------66666---3---3-------3-4---4-------4-6---6-------6--|
E --4---4-------4-------33333---------44444---------66666----|

G -----------------------------------------------------------|
D --------------------------------------------------88888----|
A --4---4-------4-6---6-------6-------66666---6---6 ? ? --6--|
E --------44444---------66666---4---4-------4 --- ------- ---|

G -----------------------------------------------------------|
D ------------------------------------------------- ? ? -----|
A --------66666---3---3-------3-4---4-------4-6---6-------6--|
E --4---4-------4-------33333---------44444---------66666----|

G ----------------------------------------------------------------|
D --------------------------------------------------1010101010----|
A --4---4-------4-6---6-------6-------66666---8---8 ? ? -------8--|
E --------44444---------66666---4---4-------4 --- ------- --------|

G--------------------------------------------------------------------|
D ------------------------------------------------8/108 ?--8/108-----|
A --4---4-------4-6---6-------6-------66666---8--8-----8--8- -----8--|
E --------44444---------66666---4---4-------4------------------------|

G------------------------------------------------------------------|
D --------------------------------------------------1010101010-----|
A --4---4-------4-6---6-------6-------66666---8---8------------8---|
E --------44444---------66666---4---4-------4----------------------|

Almost there ...

Sign in to get your own page with links to favourite songs and more. You are just one click away...

Login with Facebook Login with Google