Log in

One click and you are in

Login with Facebook Login with Google

Why sign up and log in

Guitar Tabs Explorer
Ub40 bass tabs for Im not fooled so easily

Bass tabs

Artist - UB40
Album - Geffery Morgan (1984)

Tabbed by - mattydread2@yahoo.com
verse
G|-------------------------------------------|
D|-------------------------------------------|
A|---------0-----------------------0---------|
E|-2-2-2-4---4-2-4-0-------2-2-2-4---4-2-4-2-|

G|-------------------------------------------|
D|-----------------2-------------------------|
A|---------0-----------------------0---------|
E|-2-2-2-4---4-2-4---------2-2-2-4---4-2-4-2-|


chorus
G|-------------------------------------------|
D|---------------------------------0---------|
A|-2-2-4-4-2-2-4-4---------2-2-2-4---4-2-4---|
E|-----------------2-----------------------2-|

G|-------------------------------------------|
D|-------------------------------2-2-2-----2-|
A|-2-2-4-4-2-2-4-4---------------------------| vary this E octave part
E|-----------------2-------0-0-0--------0----| each time

G|-------------------------------------------|
D|-------------------------------------------|
A|---------0-----------------------0---------|
E|-2-2-2-4---4-2-4-0-------2-2-2-4---4-2-4-2-|

repeat verse, chorus

Almost there ...

Sign in to get your own page with links to favourite songs and more. You are just one click away...

Login with Facebook Login with Google