Log in

One click and you are in

Login with Facebook Login with Google

Why sign up and log in

Guitar Tabs Explorer
Ub40 bass tabs for If it happens again

Bass tabs

Title - If it Happens Again
Album - Geffery Morgan
Bass Tab


Tabbed by - mattydread2@yahoo.com
intro
G|------------------------------|
D|-6---6---6---6---6---6---6----|
A|---6---6---6---6---6---6---6--|
E|--4-4-4-4-4-4-4-4-4-4-4-4-4-4-|

G|-------------------------------------|
D|-6---6---6---6---6---6---6---6---4-6-|
A|---6---6---6---6---6---6---6---------|
E|--4-4-4-4-4-4-4-4-4-4-4-4-4-4-4-4----|

G|-----------------------------------|
D|-----------------------------------|
A|-44--44--66---4-6-44--44--66---4-6-|
E|----6---6---6--------6---6---6-----|

G|----------------------------------|
D|------------------------------5-8-|
A|-44--44--66---4-6-44--44--6-8-----|
E|----6---6---6--------6---6--------|

G|-----------------|
D|-6---6---6---4-5-|
A|---6---6---------|
E|--4-4-4-4-4-4----|

chorus 1
G|----------------------------------|
D|-66--66-44--4-5-66--66--4---------|
A|----6--6---6-------6---6--6-6-----|
E|------------------------------2-3-|

G|--------------------------------|
D|-66--66-44--4-5-66--66--44--4-5-|
A|----6--6---6-------6---6---6----|
E|--------------------------------|

G|----------------|
D|-66--66-44--4-5-|
A|----6--6---6----|
E|----------------|


verse 1
G|--------------------------------|
D|-66--66-44------66--66--44--4-6-|
A|----6--6---6-------6---6---6----|
E|------------2-3-----------------|


bridge 1
G|----------------------------------|
D|----------------------------------|
A|-44--44--66---4-6-44--44--66--4-6-|
E|----6---6---6--------6---6---6----|

G|----------------------------------------------|
D|----------------------------------------------|
A|-44--44--66---4-6-44--44--44--slide up & down-|
E|----6---6---6--------6---6---6----------------|

G|----------------|
D|-66--66-44------|
A|----6--6---6----|
E|------------2-3-|


chorus 2
G|----------------------------------|
D|-66--66-44--4-5-66--66--4---------|
A|----6--6---6-------6---6--6-6-----|
E|------------------------------2-3-|

G|--------------------------------|
D|-66--66-44--4-5-66--66--44--4-5-|
A|----6--6---6-------6---6---6----|
E|--------------------------------|

G|----------------|
D|-66--66-44------|
A|----6--6---6----|
E|------------2-3-|


bridge 2
G|----------------------------------|
D|----------------------------------|
A|-44--44--66---4-6-44--44--66--4-6-|
E|----6---6---6--------6---6---6----|

G|----------------------------------|
D|------------------------------5-8-|
A|-44--44--66---4-6-44--44--6-8-----|
E|----6---6---6--------6---6--------|


verse 2
G|--------------------------------|
D|-66--66-44------66--66--44--4-6-|
A|----6--6---6-------6---6---6----|
E|------------2-3-----------------|


bridge 3
G|----------------------------------|
D|----------------------------------|
A|-44--44--66---4-6-44--44--66--4-6-|
E|----6---6---6--------6---6---6----|

G|----------------------------------|
D|----------------------------------|
A|-44--44--66---4-6-44--44--66--4-6-|
E|----6---6---6--------6---6---6----|

G|----------------|
D|-66--66-44--4-5-|
A|----6--6---6----|
E|----------------|


chorus 3
G|-------------------------------|
D|-66--66-4-------66--66--44-4-5-|
A|----6--6-6-6-------6---6--6----|
E|------------2-3----------------|

G|--------------------------------|
D|-66--66-44--4-5-66--66--44------|
A|----6--6---6-------6---6---6----|
E|----------------------------2-3-|

G|----------------|
D|-66--66-44--4-6-|
A|----6--6---6----|
E|----------------|


bridge 4
G|----------------------------------|
D|----------------------------------|
A|-44--44--66---4-6-44--44--66--4-6-|
E|----6---6---6--------6---6---6----|

G|----------------------------------|
D|------------------------------5-8-|
A|-44--44--66---4-6-44--44--6-8-----|
E|----6---6---6--------6---6--------|


chorus 4
G|-------------------------------|
D|-66--66-4-------66--66--44-4-5-|
A|----6--6-6-6-------6---6--6----|
E|------------2-3----------------|

G|--------------------------------|
D|-66--66-44------66--66--44--4-5-|
A|----6--6---6-------6---6---6----|
E|------------2-3-----------------|

G|----------------|
D|-66--66-4-------|
A|----6--6-6-6----|
E|------------2-3-|


chorus 5
G|--------------------------------|
D|-66--66-4---4-5-66--66--44------|
A|----6--6-6-6-------6---6---6----|
E|----------------------------2-3-|

G|--------------------------------|
D|-66--66-44--4-5-66--66--44------|
A|----6--6---6-------6---6---6----|
E|----------------------------2-3-|

G|-----------------|
D|-6---------------|
A|-----6----6--6---|
E|---44--44--44-44-|


repeat this
G|------------------------------|
D|-6---6---6---6---6---6---6----|
A|---6---6---6---6---6---6---6--|
E|--4-4-4-4-4-4-4-4-4-4-4-4-4-4-|...

rest...


outro (fading)
G|--------------------------------------------|
D|------------------------------6-66-66-------|
A|------6(6)---6----6--6----6-----------6-6-6-|
E|-4-4----------4--4----4--4------------------|

G|--------------------------------|
D|-----------------6-66-66--------|
A|---------4-(6)----------6-6-(6)-|
E|-4-44-47------------------------|

G|--------------------------------|
D|-----------------6-66-66--------|
A|---------4-(6)----------6-6-(6)-|

Almost there ...

Sign in to get your own page with links to favourite songs and more. You are just one click away...

Login with Facebook Login with Google