Log in

One click and you are in

Login with Facebook Login with Google

Why sign up and log in

Guitar Tabs Explorer
Ub40 bass tabs for Here i am baby come and take me

Here I Am Baby Come And Take Me bass tab by Ub40

Ub40 bass tabs for Here i am baby come and take me

Bass tabs

Title - Here I Am Baby
 Artist - UB40
 Album - Labour of Love II
 Tabbed by - mattydread2@yahoo.com
intro  (3)=let note ring

G|----------------------------------------------|
D|-(3)---1(1)-(3)-slow slide up-----------------|
A|----------------------------------------------|
E|----------------------------------------------|


verse X 4

G|---------------------------------|
D|---333311-1--3------333311-1-----|
A|-3---------3------3---------3----|
E|------------------------------1--|


bridge X 4

G|--------------------------------|
D|-------------------333311-1--3--|
A|---1111------1---3---------3----|
E|-1-----44-44--------------------|


chorus (follow horns)

G|--------------------------------------------------|
D|------------------------------------------6h86h8--|
A|---3-6-6------3-6-6---------3-6-6-----3-6---------|
E|-4----------4-------6-----4---------4-------------|

G|--------------------------------------------|
D|-----------------------------------(1)--(3)-|
A|---3-6-6------3-6-6---------3-6-6-----------|
E|-4----------4-------6-----4-----------------|

repeat verse, bridge, chorus then..


break X2 (during sax/guitar part)

G|------------------------------------66666-6----|
D|----66666-6---------66666-6--------6-------6---|
A|---6-------6-------6-------6-----4-----------4-|
E|-4-----------4---4-----------4-----------------|

G|----33333-3---------33333-3---------33333-3-------------------|
D|---3-------3-------3-------3-------3-------3---(3)--1(1)-(3)--|
A|-1-----------1---1-----------1---1-----------1----------------|
E|--------------------------------------------------------------|

Almost there ...

Sign in to get your own page with links to favourite songs and more. You are just one click away...

Login with Facebook Login with Google