Log in

One click and you are in

Login with Facebook Login with Google

Why sign up and log in

Guitar Tabs Explorer
Ub40 bass tabs for Don t blame me

Bass tabs

Title;Don't Blame Me
Artist;UB40
Album;Rat in the Kitchen(1986)
Tabbed by;matty
E-mail;mattydread2@yahoo.com
 intro/verse x2
G|---------------------------------
D|---------------5-----------------
A|-------5-33333---------5-33333---
E|-33333-----------33333---------5-

G|---------------------------------|
D|---------------5-----------------|
A|-------5-33333---------5-33333---|
E|-33333-----------33333---------5-|


 chorus
G|---------------------------------
D|---------------------------------
A|-------3-------5-------3-------5-
E|-11111---33333---11111---33333---

G|---------------------------------|
D|-------------------------------5-|
A|-------3-------5-------3-33333---|
E|-11111---33333---11111-----------|

Almost there ...

Sign in to get your own page with links to favourite songs and more. You are just one click away...

Login with Facebook Login with Google