Search tabs and chords

Search for song, artist or band

Log in

One click and you are in

Login with Facebook Login with Google

Why sign up and log in

Guitar Tabs Explorer
U2 guitar tabs for Youre the best thing about me

Guitar tabs

Tuning: Standard (E chord diagramEE A chord diagramAA D chord diagramDD G chord diagramGG B chord diagramBB E chord diagramEE)

Key: E chord diagramEE

Difficulty: Intermediate

You're The Best Thing About Me by U2
Track 3 of Songs Of Experience (2017)
Tabbed by TylerMO

Verse:

e|-2-2-x-2-|-4-4--7-7-|-2-2-x-2-|-2-2-2-2-|
B|-2-2-x-2-|-5-5--9-9-|-2-2-x-2-|-2-2-2-2-|
G|-4-4-x-4-|-6-6--9-9-|-4-4-x-4-|-3-3-4-4-|
D|-2-2-x-2-|-6-6--9-9-|-2-2-x-2-|-4-4-2-2-|
A|-4-4-x-4-|-4-4--7-7-|-4-4-x-4-|-4-4-4-4-|
E|-2-2-x-2-|------0-0-|-2-2-x-2-|-2-2-2-2-|

Pre-Chorus:

e|-----------------|-----------------|-----------------|-----------------|
B|-----------------|-----------------|-----------------|-----------------|
G|-----------------|-----------------|-----------------|-----------------|
D|-----------------|-----------------|-----------------|-----------------|
A|-5-5-5-5-5-5-5-5-|-5-5-5-5-5-5-5-5-|-7-7-7-7-7-7-7-7-|-9-9-9-9-9-9-9-9-|
E|-3-3-3-3-3-3-3-3-|-2-2-2-2-2-2-2-2-|-5-5-5-5-5-5-5-5-|-7-7-7-7-5-5-5-5-|

e|-----------------|-----------------|-----------------|-----------------|
B|-----------------|-----------------|-----------------|-----------------|
G|-----------------|-----------------|-----------------|-----------------|
D|-5-5-5-5-5-5-5-5-|-5-5-5-5-5-5-5-5-|-7-7-7-7-7-7-7-7-|-9-9-9-9-9-9-9-9-|
A|-5-5-5-5-5-5-5-5-|-5-5-5-5-5-5-5-5-|-7-7-7-7-7-7-7-7-|-9-9-9-9-9-9-9-9-|
E|-3-3-3-3-3-3-3-3-|-2-2-2-2-2-2-2-2-|-5-5-5-5-5-5-5-5-|-7-7-7-7-7-7-7-7-|

Chorus:

e|---10----10----10----|----10----10----10----|-9---9---9----9-|---10---9-----------|
B|------12----------12-|-------12----------12-|--10--10---10---|------------12---10-|
G|-12---------12-------|-11----------11-------|----------------|-9----9---9---------|
D|---------------------|----------------------|----------------|--------------------|
A|---------------------|----------------------|----------------|--------------------|
E|---------------------|----------------------|----------------|--------------------|

Post-Chorus:

e|-----10----10----10----10----10----10-|----9----9----9----9-----|
B|-12-----12----12----12----12----12----|-12---12---12---12---11~-|
G|--------------------------------------|-------------------------|
D|--------------------------------------|-------------------------|
A|--------------------------------------|-------------------------|
E|--------------------------------------|-------------------------|


Bridge:

e|--------------------|-----------------|--------------------|------------|
B|--------------------|-----------------|--------------------|------------|
G|--------------------|-----------------|--------------------|------------|
D|--------------------|-----------------|--------------------|------------|
A|-10-9-10-x-9-9-10-9-|-9-7-9-x-7-7-9-7-|-12-9-12-x-9-9-12-9-|-14-12-10-9-|
E|--------------------|-----------------|--------------------|------------|

e|------------------------|--------------------|-----------------------|-------------------------|
B|------------------------|--------------------|-----------------------|-------------------------|
G|-12-11-12-x-11-11-12-11-|-11-9-11-x-9-9-11-9-|-14-11-14-x-11-11-14-11|-16-16-16-16-16-16-16-16-|
D|-x--x--x--x-x--x--x--x--|-x--x-x--x-x-x-x--x-|-x--x--x--x-x--x--x--x-|-x--x--x--x--x--x--x--x--|
A|-10-9--10-x-9--9--10-9--|-9--7-9--x-7-7-9--7-|-12-9--12-x-9--9--12-9-|-14-14-14-14-14-14-14-14-|
E|------------------------|--------------------|-----------------------|-------------------------|

Bridge:

e|--------------|--------------|--------------|--------------|
B|----7---7--7--|---7---7--7---|---5---5--5---|---7---8--7---|
G|-/7---7-----7-|-7---7------7-|-6---6------6-|-7---7------7-|
D|--------------|--------------|--------------|--------------|
A|--------------|--------------|--------------|--------------|
E|--------------|--------------|--------------|--------------|

Notes: Set delay to a dotted eighth note, parts of the tab include that effect (dead chords in the bridge),
and the guitar comes in on the word "look" in the first verse.



************************************

| x  Dead note
| ~  Vibrato
| /  Slide up

************************************

Other versions of You're The Best Thing About Me

You're the best thing about meChords

Almost there ...

Sign in to get your own page with links to favourite songs and more. You are just one click away...

Login with Facebook Login with Google