Search tabs and chords

Search for song, artist or band

Log in

One click and you are in

Login with Facebook Login with Google

Why sign up and log in

Guitar Tabs Explorer
U2 bass tabs for With or without you (Ver. 2)

Bass tabs

  • Tuning: Standard tuning
  • Difficulty: Novice
Track 3 from The Joshua Tree - With or Without You

*Bass comes in @ 10 seconds*

                        Intro/Verse/Chorus/Verse II/Chorus II/Bridge
G |----------------------------|---------------------|---------------------|--------------------|
D |----------------------------|---------------------|---------------------|--------------------| X27
A |----------------------------|---------------------|---------------------|--------------------|
E |--10-10-10-10-10-10-10-10\--|--/5-5-5-5-5-5-5-5\--|--/7-7-7-7-7-7-7-7\--|--/3-3-3-3-3-3-3-3--|

*This is played throughout the song until after the Bridge*

*3:40*
            Bridge II
G |--------------------------------|
D |--------------------------------|
A |--------------------------------|
E |--10~~----10~~----10~~----10~~--|

Rest for a moment

G |----------------|
D |----------------|
A |----------------|
E |--10~~----10~~--|

                                     Outro
G |----------------------------|---------------------|---------------------|--------------------|
D |----------------------------|---------------------|---------------------|--------------------| X5
A |----------------------------|---------------------|---------------------|--------------------|
E |--10-10-10-10-10-10-10-10\--|--/5-5-5-5-5-5-5-5\--|--/7-7-7-7-7-7-7-7\--|--/3-3-3-3-3-3-3-3--|

G |----------------------------|---------------------|---------------------|
D |----------------------------|---------------------|---------------------|
A |----------------------------|---------------------|---------------------|
E |--10-10-10-10-10-10-10-10\--|--/5-5-5-5-5-5-5-5\--|--/7-7-7-7-7-7-7-7\--|

Other versions of With Or Without You

With or without youBass tabs

Almost there ...

Sign in to get your own page with links to favourite songs and more. You are just one click away...

Login with Facebook Login with Google