Search tabs and chords

Search for song, artist or band

Log in

One click and you are in

Login with Facebook Login with Google

Why sign up and log in

Guitar Tabs Explorer
U2 guitar tabs for Winter

Guitar tabs with lyrics

Band: U2
Tab by: Headache90(Michal Nawrocki)


Intro:

e|---------------------------------------------------------------------------|
B|-7--7---7---7---7---7---7---7---8---8---8---10---10---10---10--------------|
G|--9---9---9---9---9---9---9---9---9---9---9----9----9----9----9------------|
D|---------------------------------------------------------------------------|
A|---------------------------------------------------------------------------|
E|---------------------------------------------------------------------------|
 |
e|---------------------------------------------------------------------------|
B|-7--7---7---7---7---7---7---7---8---8---8---8---8---8---8------------------|
G|--9---9---9---9---9---9---9---9---9---9---9---9---9---9---9----------------|
D|---------------------------------------------------------------------------|
A|---------------------------------------------------------------------------|
E|---------------------------------------------------------------------------|
 |
e|---------------------------------------------------------------------------|
B|-7--7---7---7---7---7---7---7---8---8---8---8---8----10--10----------------|
G|--9---9---9---9---9---9---9---9---9---9---9---9---9------------------------|
D|---------------------------------------------------------------------------|
A|---------------------------------------------------------------------------|
E|---------------------------------------------------------------------------|
 |
e|---------------------------------------------------------------------------|
B|-7--7---7---7---7---7---7---7---8---8---8---8---8---8---8------------------|
G|--9---9---9---9---9---9---9---9---9---9---9---9---9---9---9----------------|
D|---------------------------------------------------------------------------|
A|---------------------------------------------------------------------------|
E|---------------------------------------------------------------------------|
 |
e|---------------------------------------------------------------------------|
B|-7--7---7---7---7---7---7---7---8---8---8---8---8----10--10----------------|
G|--9---9---9---9---9---9---9---9---9---9---9---9---9------------------------|
D|---------------------------------------------------------------------------|
A|---------------------------------------------------------------------------|
E|---------------------------------------------------------------------------|
 |
e|---------------------------------------------------------------------------|
B|-7--7---7---7---7---7---7---7---8---8---8---8---8---8---8------------------|
G|--9---9---9---9---9---9---9---9---9---9---9---9---9---9---9----------------|
D|---------------------------------------------------------------------------|
A|---------------------------------------------------------------------------|
E|---------------------------------------------------------------------------|
 |
e|---------------------------------------------------------------------------|
B|-7--7---7---7---7---7---7---7---8---8---8---8---8----10--10----------------|
G|--9---9---9---9---9---9---9---9---9---9---9---9---9------------------------|
D|---------------------------------------------------------------------------|
A|---------------------------------------------------------------------------|
E|---------------------------------------------------------------------------|
 |
e|---------------------------------------------------------------------------|
B|-7--7---7---7---7---7---7---7---8---8---8---8---8---8---8------------------|
G|--9---9---9---9---9---9---9---9---9---9---9---9---9---9---9----------------|
D|---------------------------------------------------------------------------|
A|---------------------------------------------------------------------------|
E|---------------------------------------------------------------------------|

  Verse:

         The yellow sun          Well it took the hand
e|---------------------------------------------------------------------------|
B|-7--7---7---7---7---7---7---7---8---8---8---8---8----10--10----------------|
G|--9---9---9---9---9---9---9---9---9---9---9---9---9------------------------|
D|---------------------------------------------------------------------------|
A|---------------------------------------------------------------------------|
E|---------------------------------------------------------------------------|
 |       Of a country boy        To a city in a far off land
e|---------------------------------------------------------------------------|
B|-7--7---7---7---7---7---7---7---8---8---8---8---8---8---8------------------|
G|--9---9---9---9---9---9---9---9---9---9---9---9---9---9---9----------------|
D|---------------------------------------------------------------------------|
A|---------------------------------------------------------------------------|
E|---------------------------------------------------------------------------|
 |      We made no mark            No shadow at all
e|---------------------------------------------------------------------------|
B|-7--7---7---7---7---7---7---7---8---8---8---8---8----10--10----------------|
G|--9---9---9---9---9---9---9---9---9---9---9---9---9------------------------|
D|---------------------------------------------------------------------------|
A|---------------------------------------------------------------------------|
E|---------------------------------------------------------------------------|
 |  On the ancient holy streets    Where I learned to crawl
e|---------------------------------------------------------------------------|
B|-7--7---7---7---7---7---7---7---8---8---8---8---8---8---8------------------|
G|--9---9---9---9---9---9---9---9---9---9---9---9---9---9---9----------------|
D|---------------------------------------------------------------------------|
A|---------------------------------------------------------------------------|
E|---------------------------------------------------------------------------|

Pre-chorus:

  The broken and the bruised  The young and the used
e|---------------------------------------------------------------------------|
B|--9/10-----8-8-------------------------------------------------------------|
G|-----------------------------9---------7/9---------------------------------|
D|---------------------------------------------------------------------------|
A|---------------------------------------------------------------------------|
E|---------------------------------------------------------------------------|
   The sure and confused all here
e|---------------------------------------------------------------------------|
B|------------------------------8-----8-8-7----------------------------------|
G|---7/9----------------------9-------------9-7------------------------------|
D|---------------------------------------------------------------------------|
A|---------------------------------------------------------------------------|
E|---------------------------------------------------------------------------|

Chorus:
  Words will land on me
e|---------------------------------------------------------------------------|
B|--14----14----14----14----14----14----15----15----15----15-----------------|
G|-----14----14----14----14----14----14----14----14----14----14--------------|
D|---------------------------------------------------------------------------|
A|---------------------------------------------------------------------------|
E|---------------------------------------------------------------------------|
  Then abandon me
e|---------------------------------------------------------------------------|
B|--14----14----14----14----14----14----15----15----15----15-----------------|
G|-----14----14----14----14----14----14----14----14----14----14--------------|
D|---------------------------------------------------------------------------|
A|---------------------------------------------------------------------------|
E|---------------------------------------------------------------------------|

   Mangle, untangle me
e|---------------------------------------------------------------------------|
B|--14----14----14----14----14----14----15----15----15----15-----------------|
G|-----14----14----14----14----14----14----14----14----14----14--------------|
D|---------------------------------------------------------------------------|
A|---------------------------------------------------------------------------|
E|---------------------------------------------------------------------------|
  Leave me on the floor
e|-----------------------------------------------------------------------------------------|
B|--14----14----14----14----14----14----15----15----15----15-----17-15--14-15-14--15-17----|
G|-----14----14----14----14----14----14----14----14----14----14----------------------------|
D|-----------------------------------------------------------------------------------------|
A|-----------------------------------------------------------------------------------------|
E|-----------------------------------------------------------------------------------------|
   Rhymes they sprang in me
e|---------------------------------------------------------------------------|
B|--14----14----14----14----14----14----15----15----15----15-----------------|
G|-----14----14----14----14----14----14----14----14----14----14--------------|
D|---------------------------------------------------------------------------|
A|---------------------------------------------------------------------------|
E|---------------------------------------------------------------------------|
  Summer sang in me
e|---------------------------------------------------------------------------|
B|--14----14----14----14----14----14----15----15----15----15-----------------|
G|-----14----14----14----14----14----14----14----14----14----14--------------|
D|---------------------------------------------------------------------------|
A|---------------------------------------------------------------------------|
E|---------------------------------------------------------------------------|
  But summer sings in me no more
e|-----------------------------------------------------------------------------------------|
B|--14----14----14----14----14----14----15----15----15----15-----17-15--14-15-14--15-17----|
G|-----14----14----14----14----14----14----14----14----14----14----------------------------|
D|-----------------------------------------------------------------------------------------|
A|-----------------------------------------------------------------------------------------|
E|-----------------------------------------------------------------------------------------|
  Verse:



  Now I'm 25               I'm trying to stay alive
e|---------------------------------------------------------------------------|
B|-7--7---7---7---7---7---7---7---8---8---8---8---8---8---8------------------|
G|--9---9---9---9---9---9---9---9---9---9---9---9---9---9---9----------------|
D|---------------------------------------------------------------------------|
A|---------------------------------------------------------------------------|
E|---------------------------------------------------------------------------|
 | In a corner of the world     With no clear enemies to fight
e|---------------------------------------------------------------------------|
B|-7--7---7---7---7---7---7---7---8---8---8---8---8---8---8------------------|
G|--9---9---9---9---9---9---9---9---9---9---9---9---9---9---9----------------|
D|---------------------------------------------------------------------------|
A|---------------------------------------------------------------------------|
E|---------------------------------------------------------------------------|
 |    It's hot as hell           We're like butter on toast
e|---------------------------------------------------------------------------|
B|-7--7---7---7---7---7---7---7---8---8---8---8---8---8---8------------------|
G|--9---9---9---9---9---9---9---9---9---9---9---9---9---9---9----------------|
D|---------------------------------------------------------------------------|
A|---------------------------------------------------------------------------|
E|---------------------------------------------------------------------------|
 |   But there's no army in this world  That can fight a ghost
e|---------------------------------------------------------------------------|
B|-7--7---7---7---7---7---7---7---8---8---8---8---8---8---8------------------|
G|--9---9---9---9---9---9---9---9---9---9---9---9---9---9---9----------------|
D|---------------------------------------------------------------------------|
A|---------------------------------------------------------------------------|
E|---------------------------------------------------------------------------

Pre-chorus:


 The broken and the bruised  The young and the used
e|---------------------------------------------------------------------------|
B|--9/10-----8-8-------------------------------------------------------------|
G|-----------------------------9---------7/9---------------------------------|
D|---------------------------------------------------------------------------|
A|---------------------------------------------------------------------------|
E|---------------------------------------------------------------------------|
   The sure and confused all here
e|---------------------------------------------------------------------------|
B|------------------------------8-----8-8-7----------------------------------|
G|---7/9----------------------9-------------9-7------------------------------|
D|---------------------------------------------------------------------------|
A|---------------------------------------------------------------------------|
E|---------------------------------------------------------------------------|




Chorus:

  Words will land on me
e|---------------------------------------------------------------------------|
B|--14----14----14----14----14----14----15----15----15----15-----------------|
G|-----14----14----14----14----14----14----14----14----14----14--------------|
D|---------------------------------------------------------------------------|
A|---------------------------------------------------------------------------|
E|---------------------------------------------------------------------------|
  Then abandon me
e|---------------------------------------------------------------------------|
B|--14----14----14----14----14----14----15----15----15----15-----------------|
G|-----14----14----14----14----14----14----14----14----14----14--------------|
D|---------------------------------------------------------------------------|
A|---------------------------------------------------------------------------|
E|---------------------------------------------------------------------------|

   Mangle, untangle me
e|---------------------------------------------------------------------------|
B|--14----14----14----14----14----14----15----15----15----15-----------------|
G|-----14----14----14----14----14----14----14----14----14----14--------------|
D|---------------------------------------------------------------------------|
A|---------------------------------------------------------------------------|
E|---------------------------------------------------------------------------|
  Leave me on the floor
e|-----------------------------------------------------------------------------------------|
B|--14----14----14----14----14----14----15----15----15----15-----17-15--14-15-14--15-17----|
G|-----14----14----14----14----14----14----14----14----14----14----------------------------|
D|-----------------------------------------------------------------------------------------|
A|-----------------------------------------------------------------------------------------|
E|-----------------------------------------------------------------------------------------|
   Rhymes they sprang in me
e|---------------------------------------------------------------------------|
B|--14----14----14----14----14----14----15----15----15----15-----------------|
G|-----14----14----14----14----14----14----14----14----14----14--------------|
D|---------------------------------------------------------------------------|
A|---------------------------------------------------------------------------|
E|---------------------------------------------------------------------------|
  Summer sang in me
e|---------------------------------------------------------------------------|
B|--14----14----14----14----14----14----15----15----15----15-----------------|
G|-----14----14----14----14----14----14----14----14----14----14--------------|
D|---------------------------------------------------------------------------|
A|---------------------------------------------------------------------------|
E|---------------------------------------------------------------------------|
  But summer sings in me no more
e|-----------------------------------------------------------------------------------------|
B|--14----14----14----14----14----14----15----15----15----15-----17-15--14-15-14--15-17----|
G|-----14----14----14----14----14----14----14----14----14----14----------------------------|
D|-----------------------------------------------------------------------------------------|
A|-----------------------------------------------------------------------------------------|
E|-----------------------------------------------------------------------------------------|

Bridge:

  Ooooooooooooooooooooooooo

e|---------------------------------------------------------------------------|
B|-7--7---7---7---7---7---7---7---8---8---8---8---8---8---8------------------|
G|--9---9---9---9---9---9---9---9---9---9---9---9---9---9---9----------------|
D|---------------------------------------------------------------------------|
A|---------------------------------------------------------------------------|
E|---------------------------------------------------------------------------|
  Ooooooooooooooooooooooooo
e|---------------------------------------------------------------------------|
B|-7--7---7---7---7---7---7---7---8---8---8---8---8---8---8------------------|
G|--9---9---9---9---9---9---9---9---9---9---9---9---9---9---9----------------|
D|---------------------------------------------------------------------------|
A|---------------------------------------------------------------------------|
E|---------------------------------------------------------------------------|

  the silence in the foreground   the sky stretched
e|---------------------------------------------------------------------------|
B|---------------------------------------------------------------------------|
G|--7--9--11----7--9--11----7--9--11---7--9--11----7--9--11---7--9--11-------|
D|---------------------------------------------------------------------------|
A|---------------------------------------------------------------------------|
E|---------------------------------------------------------------------------|
 |the stench over everyone   listen to the tanks
e|---------------------------------------------------------------------------|
B|---------------------------------------------------------------------------|
G|--7--9--11----7--9--11----7--9--11---7--9--11----7--9--11---7--9--11-------|
D|---------------------------------------------------------------------------|
A|---------------------------------------------------------------------------|
E|---------------------------------------------------------------------------|
 | the shots
e|---------------------------------------------------------------------------|
B|---------------------------------------------------------------------------|
G|--7--9--11----7--9--11----7--9--11---7--9--11----7--9--11---7--9--11-------|
D|---------------------------------------------------------------------------|
A|---------------------------------------------------------------------------|
E|---------------------------------------------------------------------------|

  Verse:

e|---------------------------------------------------------------------------|
B|-7--7---7---7---7---7---7---7---8---8---8---8---8---8---8------------------|
G|--9---9---9---9---9---9---9---9---9---9---9---9---9---9---9----------------|
D|---------------------------------------------------------------------------|
A|---------------------------------------------------------------------------|
E|---------------------------------------------------------------------------|
 |
e|-X-X-X-X-X-X-X-X-X-X-X-X-X-X-X-X-X-X-X-X-X-X-X-X-X-X-X-X-X-X-X-X-X-X-X-X-X-|
B|-X-X-X-X-X-X-X-X-X-X-X-X-X-X-X-X-X-X-X-X-X-X-X-X-X-X-X-X-X-X-X-X-X-X-X-X-X-|
G|-X-X-X-X-X-X-X-X-X-X-X-X-X-X-X-X-X-X-X-X-X-X-X-X-X-X-X-X-X-X-X-X-X-X-X-X-X-|
D|-X-X-X-X-X-X-X-X-X-X-X-X-X-X-X-X-X-X-X-X-X-X-X-X-X-X-X-X-X-X-X-X-X-X-X-X-X-|
A|-X-X-X-X-X-X-X-X-X-X-X-X-X-X-X-X-X-X-X-X-X-X-X-X-X-X-X-X-X-X-X-X-X-X-X-X-X-|
e|-X-X-X-X-X-X-X-X-X-X-X-X-X-X-X-X-X-X-X-X-X-X-X-X-X-X-X-X-X-X-X-X-X-X-X-X-X-|
 |
e|---------------------------------------------------------------------------|
B|-7--7---7---7---7---7---7---7---8---8---8---8---8---8---8------------------|
G|--9---9---9---9---9---9---9---9---9---9---9---9---9---9---9----------------|
D|---------------------------------------------------------------------------|
A|---------------------------------------------------------------------------|
E|---------------------------------------------------------------------------|
 |
e|-X-X-X-X-X-X-X-X-X-X-X-X-X-X-X-X-X-X-X-X-X-X-X-X-X-X-X-X-X-X-X-X-X-X-X-X-X-|
B|-X-X-X-X-X-X-X-X-X-X-X-X-X-X-X-X-X-X-X-X-X-X-X-X-X-X-X-X-X-X-X-X-X-X-X-X-X-|
G|-X-X-X-X-X-X-X-X-X-X-X-X-X-X-X-X-X-X-X-X-X-X-X-X-X-X-X-X-X-X-X-X-X-X-X-X-X-|
D|-X-X-X-X-X-X-X-X-X-X-X-X-X-X-X-X-X-X-X-X-X-X-X-X-X-X-X-X-X-X-X-X-X-X-X-X-X-|
A|-X-X-X-X-X-X-X-X-X-X-X-X-X-X-X-X-X-X-X-X-X-X-X-X-X-X-X-X-X-X-X-X-X-X-X-X-X-|
e|-X-X-X-X-X-X-X-X-X-X-X-X-X-X-X-X-X-X-X-X-X-X-X-X-X-X-X-X-X-X-X-X-X-X-X-X-X-|
 |      At 21                  I was born a son
e|---------------------------------------------------------------------------|
B|-7--7---7---7---7---7---7---7---8---8---8---8---8----10--10----------------|
G|--9---9---9---9---9---9---9---9---9---9---9---9---9------------------------|
D|---------------------------------------------------------------------------|
A|---------------------------------------------------------------------------|
E|---------------------------------------------------------------------------|
 |
e|-X-X-X-X-X-X-X-X-X-X-X-X-X-X-X-X-X-X-X-X-X-X-X-X-X-X-X-X-X-X-X-X-X-X-X-X-X-|
B|-X-X-X-X-X-X-X-X-X-X-X-X-X-X-X-X-X-X-X-X-X-X-X-X-X-X-X-X-X-X-X-X-X-X-X-X-X-|
G|-X-X-X-X-X-X-X-X-X-X-X-X-X-X-X-X-X-X-X-X-X-X-X-X-X-X-X-X-X-X-X-X-X-X-X-X-X-|
D|-X-X-X-X-X-X-X-X-X-X-X-X-X-X-X-X-X-X-X-X-X-X-X-X-X-X-X-X-X-X-X-X-X-X-X-X-X-|
A|-X-X-X-X-X-X-X-X-X-X-X-X-X-X-X-X-X-X-X-X-X-X-X-X-X-X-X-X-X-X-X-X-X-X-X-X-X-|
e|-X-X-X-X-X-X-X-X-X-X-X-X-X-X-X-X-X-X-X-X-X-X-X-X-X-X-X-X-X-X-X-X-X-X-X-X-X-|
 | And on that day I knew         I could kill
e|---------------------------------------------------------------------------|
B|-7--7---7---7---7---7---7---7---8---8---8---8---8---8---8------------------|
G|--9---9---9---9---9---9---9---9---9---9---9---9---9---9---9----------------|
D|---------------------------------------------------------------------------|
A|---------------------------------------------------------------------------|
E|---------------------------------------------------------------------------|
 |
e|-X-X-X-X-X-X-X-X-X-X-X-X-X-X-X-X-X-X-X-X-X-X-X-X-X-X-X-X-X-X-X-X-X-X-X-X-X-|
B|-X-X-X-X-X-X-X-X-X-X-X-X-X-X-X-X-X-X-X-X-X-X-X-X-X-X-X-X-X-X-X-X-X-X-X-X-X-|
G|-X-X-X-X-X-X-X-X-X-X-X-X-X-X-X-X-X-X-X-X-X-X-X-X-X-X-X-X-X-X-X-X-X-X-X-X-X-|
D|-X-X-X-X-X-X-X-X-X-X-X-X-X-X-X-X-X-X-X-X-X-X-X-X-X-X-X-X-X-X-X-X-X-X-X-X-X-|
A|-X-X-X-X-X-X-X-X-X-X-X-X-X-X-X-X-X-X-X-X-X-X-X-X-X-X-X-X-X-X-X-X-X-X-X-X-X-|
e|-X-X-X-X-X-X-X-X-X-X-X-X-X-X-X-X-X-X-X-X-X-X-X-X-X-X-X-X-X-X-X-X-X-X-X-X-X-|
 | To protect the ones           Who put bullets in guns
e|---------------------------------------------------------------------------|
B|-7--7---7---7---7---7---7---7---8---8---8---8---8----10--10----------------|
G|--9---9---9---9---9---9---9---9---9---9---9---9---9------------------------|
D|---------------------------------------------------------------------------|
A|---------------------------------------------------------------------------|
E|---------------------------------------------------------------------------|
 |
e|-X-X-X-X-X-X-X-X-X-X-X-X-X-X-X-X-X-X-X-X-X-X-X-X-X-X-X-X-X-X-X-X-X-X-X-X-X-|
B|-X-X-X-X-X-X-X-X-X-X-X-X-X-X-X-X-X-X-X-X-X-X-X-X-X-X-X-X-X-X-X-X-X-X-X-X-X-|
G|-X-X-X-X-X-X-X-X-X-X-X-X-X-X-X-X-X-X-X-X-X-X-X-X-X-X-X-X-X-X-X-X-X-X-X-X-X-|
D|-X-X-X-X-X-X-X-X-X-X-X-X-X-X-X-X-X-X-X-X-X-X-X-X-X-X-X-X-X-X-X-X-X-X-X-X-X-|
A|-X-X-X-X-X-X-X-X-X-X-X-X-X-X-X-X-X-X-X-X-X-X-X-X-X-X-X-X-X-X-X-X-X-X-X-X-X-|
e|-X-X-X-X-X-X-X-X-X-X-X-X-X-X-X-X-X-X-X-X-X-X-X-X-X-X-X-X-X-X-X-X-X-X-X-X-X-|
 | Or anything it takes          To take a life
e|---------------------------------------------------------------------------|
B|-7--7---7---7---7---7---7---7---8---8---8---8---8---8---8------------------|
G|--9---9---9---9---9---9---9---9---9---9---9---9---9---9---9----------------|
D|---------------------------------------------------------------------------|
A|---------------------------------------------------------------------------|
E|---------------------------------------------------------------------------|

Outro:
  Ooooooooooooooooooooooooooooooooooooooooooooooooooo
e|---------------------------------------------------------------------------|
B|-7--7---7---7---7---7---7---7---8---8---8---8---8----10--10----------------|
G|--9---9---9---9---9---9---9---9---9---9---9---9---9------------------------|
D|---------------------------------------------------------------------------|
A|---------------------------------------------------------------------------|
E|---------------------------------------------------------------------------|
 |Ooooooooooooooooooooooooooooooooooooooooooooooooooo
e|---------------------------------------------------------------------------|
B|-7--7---7---7---7---7---7---7---8---8---8---8---8---8---8------------------|
G|--9---9---9---9---9---9---9---9---9---9---9---9---9---9---9----------------|
D|---------------------------------------------------------------------------|
A|---------------------------------------------------------------------------|
E|---------------------------------------------------------------------------|
 |Ooooooooooooooooooooooooooooooooooooooooooooooooooo
e|---------------------------------------------------------------------------|
B|-7--7---7---7---7---7---7---7---8---8---8---8---8----10--10----------------|
G|--9---9---9---9---9---9---9---9---9---9---9---9---9------------------------|
D|---------------------------------------------------------------------------|
A|---------------------------------------------------------------------------|
E|---------------------------------------------------------------------------|
 |Ooooooooooooooooooooooooooooooooooooooooooooooooooo
e|---------------------------------------------------------------------------|
B|-7--7---7---7---7---7---7---7---8---8---8---8---8---8---8------------------|
G|--9---9---9---9---9---9---9---9---9---9---9---9---9---9---9----------------|
D|---------------------------------------------------------------------------|
A|---------------------------------------------------------------------------|
E|---------------------------------------------------------------------------|
 | Ooooooooooooooooooooooooooooooooooooooooooooooooooo
e|---------------------------------------------------------------------------|
B|-7--7---7---7---7---7---7---7---8---8---8---8---8----10--10----------------|
G|--9---9---9---9---9---9---9---9---9---9---9---9---9------------------------|
D|---------------------------------------------------------------------------|
A|---------------------------------------------------------------------------|
E|---------------------------------------------------------------------------|
 |Ooooooooooooooooooooooooooooooooooooooooooooooooooo
e|---------------------------------------------------------------------------|
B|-7--7---7---7---7---7---7---7---8---8---8---8---8---8---8------------------|
G|--9---9---9---9---9---9---9---9---9---9---9---9---9---9---9----------------|
D|---------------------------------------------------------------------------|
A|---------------------------------------------------------------------------|
E|---------------------------------------------------------------------------|
 |Ooooooooooooooooooooooooooooooooooooooooooooooooooo
e|---------------------------------------------------------------------------|
B|-7--7---7---7---7---7---7---7---8---8---8---8---8----10--10----------------|
G|--9---9---9---9---9---9---9---9---9---9---9---9---9------------------------|
D|---------------------------------------------------------------------------|
A|---------------------------------------------------------------------------|
E|---------------------------------------------------------------------------|
 |Ooooooooooooooooooooooooooooooooooooooooooooooooooo
e|---------------------------------------------------------------------------|
B|-7--7---7---7---7---7---7---7---8---8---8---8---8---8---8------------------|
G|--9---9---9---9---9---9---9---9---9---9---9---9---9---9---9----------------|
D|---------------------------------------------------------------------------|
A|---------------------------------------------------------------------------|
E|---------------------------------------------------------------------------|

Almost there ...

Sign in to get your own page with links to favourite songs and more. You are just one click away...

Login with Facebook Login with Google