Search tabs and chords

Search for song, artist or band

Log in

One click and you are in

Login with Facebook Login with Google

Why sign up and log in

Guitar Tabs Explorer
U2 guitar tabs for Walk on

Guitar tabs with lyrics

Title: Walk On

Here are the chords that are used in the song

Dm chord diagramDmDm      C chord diagramCC      G chord diagramGG      D chord diagramDD     A chord diagramAA     G6 chord diagramG6G6    Em chord diagramEmEm     E chord diagramEE

-1-------------3------2--------------------------------------------------= -----
-3------1-------------3-----2--------------------------------------------= -----
-2--------------------2-----2------------------1-------------------------= -----
--------2-------------------2-----------2------2-------------------------= -----
--------3------2------------------2-----2------2-------------------------= -----
---------------3------------------3--------------------------------------= -----

Intro

Dm chord diagramDmDm       C chord diagramCC    G chord diagramGG  (2 times)
And love...
Guitar intro (also played over the chorus)

 D chord diagramDD             A chord diagramAA             G6 chord diagramG6G6            Em chord diagramEmEm
-------12------------12------------12------------12----------------------= -----
----10----10------10----10------10----10------10----10-------------------= -----
-11------------11------------11------------11----------------------------= -----
-------------------------------------------------------------------------= -----
-------------------------------------------------------------------------= -----
-------------------------------------------------------------------------= -----

 D chord diagramDD             A chord diagramAA             G6 chord diagramG6G6            E chord diagramEE
-------12------------12------------12------------12----------------------= -----
----10----10------10----10------10----10------12----12-------------------= -----
-11------------11------------11------------13----------------------------= -----
-------------------------------------------------------------------------= -----
-------------------------------------------------------------------------= -----
-------------------------------------------------------------------------= -----
End of Guitar intro

Verse
D chord diagramDD          A chord diagramAA              G6 chord diagramG6G6      Em chord diagramEmEm (2 times)
And if the darkness...
D chord diagramDD      A chord diagramAA            G6 chord diagramG6G6
And if your glass...
          E chord diagramEE         D chord diagramDD
And for a second...
   A chord diagramAA      E chord diagramEE



Chorus
     D chord diagramDD A chord diagramAA G6 chord diagramG6G6 Em chord diagramEmEm D chord diagramDD A chord diagramAA G6 chord diagramG6G6 E chord diagramEE
Walk on...


Chorus (2nd time around)
     D chord diagramDD A chord diagramAA G6 chord diagramG6G6 Em chord diagramEmEm D chord diagramDD A chord diagramAA G6 chord diagramG6G6 E chord diagramEE
Walk on...
      D chord diagramDD               A chord diagramAA   E chord diagramEE
And I know it aches...
         Em chord diagramEmEm       G chord diagramGG   A chord diagramAA (2 times)
(chords over guitar solo) =20


The close repeats the following chords:
Em chord diagramEmEm  G chord diagramGG  D chord diagramDD  A chord diagramAA






Title: Walk On (Solo)
Album: All That You Can't Leave Behind

Standard tuning

Key:

/ = slide up
h = hammer on
p = pull off
br = bend string up, then release the bend but hold
note

------------------------------------------------------------------------------
-7/8-8/10-10/12-12-12--15-14-12-14--12h14p12-10--10h12p10-7-5-5/7-7-----------
------------------------------------------------------------------------------
------------------------------------------------------------------------------
------------------------------------------------------------------------------
------------------------------------------------------------------------------




------------------------------------------------------------------------------
-7/8-8/10-10/12-12-12-15-14-10-7-7/10-10/12-14br-12-10--12-14br-12-14---------
------------------------------------------------------------------------------
------------------------------------------------------------------------------
------------------------------------------------------------------------------
------------------------------------------------------------------------------




------------------------------------------------------------------------------
-14br-12-10-7-7h8p6--5-7-5-3--------------------------------------------------
------------------------------------------------------------------------------
------------------------------------------------------------------------------
------------------------------------------------------------------------------
------------------------------------------------------------------------------

Almost there ...

Sign in to get your own page with links to favourite songs and more. You are just one click away...

Login with Facebook Login with Google