Search tabs and chords

Search for song, artist or band

Log in

One click and you are in

Login with Facebook Login with Google

Why sign up and log in

Guitar Tabs Explorer
U2 guitar tabs for Vertigo

Guitar tabs with lyrics

Friday, September 24, 2004

Guitar Tab
---------------
Band - U2
Album - How to Defuse and Atomic Bomb
Song - Vertigo
Tabbed By - Mr. Bond

This is the first single, Vertigo,  off U2's New Album How to Defuse an Atomic Bomb. Most of

the Song is tabbed though I didn't have time to get to the guitar fill at the end. Listen to

the song to get the right timing!

Intro - x4
---------

E|--------------------------------------------------------------------------
B|--------------------------------------------------------------------------
G|--7-9-9-7-9-9-7-9---------------------------------------------------------
D|--7-9-9-7-9-9-7-9--9-9-9-9-8-7-7------------------------------------------
A|--5-7-7-5-7-7-5-7--9-9-9-9-8-7-7------------------------------------------
E|-------------------7-7-7-7-6-5-5------------------------------------------

Verses
---------

(The verses are the same as the intro, only they are played on the bassline)

On the Second verse there is a short fill played though....

Play x8 (about half way through the verse)

E|-12----10----10-----------------------------------------------------------
B|----12----12----12--------------------------------------------------------
G|--------------------------------------------------------------------------
D|--------------------------------------------------------------------------
A|--------------------------------------------------------------------------
E|--------------------------------------------------------------------------

Chorus x2
---------

E|--------------------------------------------------------------------------
B|--------------------------------------------------------------------------
G|-9-9-9-9-9-9--7-7-7-7-7-7--12-12-12-12-12-12---------------------------
D|-9-9-9-9-9-9--7-7-7-7-7-7--12-12-12-12-12-12--9-9-9-9-9-9-9--------------
A|-7-7-7-7-7-7--5-5-5-5-5-5--10-10-10-10-10-10--9-9-9-9-9-9-9---------------
E|----------------------------------------------7-7-7-7-7-7-7--------------

Then repeat the Intro x2

Enjoy the Song and the Tabs, and If you feel the need to do so, you may adjust, correct, or

add to this tab for the better enjoyment of everyone!

Mr. Bond

---------------------------

Make sure you support the Band and don't download Music....buy their Album!

Other versions of Vertigo

VertigoChords

Almost there ...

Sign in to get your own page with links to favourite songs and more. You are just one click away...

Login with Facebook Login with Google