Search tabs and chords

Search for song, artist or band

Log in

One click and you are in

Login with Facebook Login with Google

Why sign up and log in

Guitar Tabs Explorer
U2 bass tabs for Twilight

Bass tabs

Track 2 Form the 'Boy' Album
Tuning (Eb,Ab,Db,Gb)

Intro:(00:06)
Gb|--------------------------------------------------------------------|
Db|*-------14/-----------------------10--------10/---------------------|
Ab|*-----------------5-------5/---------------------------2---------2/-|
Eb|--------------------------------------------------------------------|

Gb|----------------------------------------------------------------------|
Db|*-------------------12------12/--------------------------------------*|
Ab|*-7-------7/------------------------3--------3/------14--14-14-14-14/*|
Eb|----------------------------------------------------------------------|

Second Lick:(00:20)
Gb|----------------------------------------------------------------------|
Db|*--------------------------------------------------------------------*|
Ab|*--7--#-7#--7-7-7---5--#-5#--5-5-5---3--#-3#--3-3-3---2--#-2#--2-2/--*|
Eb|----------------------------------------------------------------------|

Third Lick:(00:27)
Gb|----------------------------------------------------------------------|
Db|*--------9-------9--------7-------7--------5-------5-----------------*|
Ab|*--7--7----7--7-----5--5----5--5-----3--3----3--3-----2---2-2-2-2-2/-*|
Eb|----------------------------------------------------------------------|

Verse:(00:34)
Gb|------------9-----9----------7-----7----------5-----5-----------------|
Db|*--------------------------------------------------------------------*|
Ab|*--7#--7#-----7-----5#--5#------5-----3#--3#-----3-----2#--2#--2--2/-*|
Eb|----------------------------------------------------------------------|

Gb|------------9-----9----------7-----7----------5-----5-----------------|
Db|*--------------------------------------------------------------------*|
Ab|*--7#--7#-----7-----5#--5#------5-----3#--3#-----3-----2#--2#--2--2/-*|
Eb|----------------------------------------------------------------------|

Bridge:(00:48)
Gb|----------------------------------------------------------------------|
Db|*--------9-------9--------7-------7--------5-------5-----------------*|
Ab|*--7--7----7--7-----5--5----5--5-----3--3----3--3-----2---2-2-2-2-2/-*|
Eb|----------------------------------------------------------------------|

Verse:(00:54)
Gb|------------9-----9----------7-----7----------5-----5-----------------|
Db|*--------------------------------------------------------------------*|
Ab|*--7#--7#-----7-----5#--5#------5-----3#--3#-----3-----2#--2#--2--2/-*|
Eb|----------------------------------------------------------------------|

Gb|------------9-----9----------7-----7----------5-----5-----------------|
Db|*--------------------------------------------------------------------*|
Ab|*--7#--7#-----7-----5#--5#------5-----3#--3#-----3-----2#--2#--2--2/-*|
Eb|----------------------------------------------------------------------|

Bridge:(01:08)
Gb|----------------------------------------------------------------------|
Db|*--------9-------9--------7-------7--------5-------5-----------------*|
Ab|*--7--7----7--7-----5--5----5--5-----3--3----3--3-----2---2-2-2-2-2/-*|
Eb|----------------------------------------------------------------------|

Chorus:(01:15)
Gb|----------------------------------------------------------------------|
Db|*---------------------------------------------------------------------|
Ab|*7-7-7-7-7-7-7-7--5-5-5-5-5-5-5-5-5--3-3-3-3-3-3-3-3--2-2-2-2-2-2-2-2-|
Eb|----------------------------------------------------------------------|

Gb|----------------------------------------------------------------------|
Db|---------------------------------------------------------------------*|
Ab|-7-7-7-7-7-7-7-7--5-5-5-5-5-5-5-5-5--3-3-3-3-3-3-3-3--2-2-2-2-2-2-2-2*|
Eb|----------------------------------------------------------------------|

Bridge:(01:29)
Gb|-------------------------------------|
Db|*-----------------------------------*|
Ab|*-----------------------------------*|
Eb|-0-2-3--0-2-3--0-2-3--0-2-3--0-2-3-0-|

Out Of Bridge:(01:45)
Gb|----------------------------------|-----------------------------------|
Db|*---------------------------------|----------------------------------*|
Ab|*---------------------------------|----------------------------------*|
Eb|-5---------#-3------5---------#-3-|-5---------#-3------5---------#-3--|

Out Of Chorus:
Gb|----------------------------------------------------------------------|
Db|*---------------------------------------------------------------------|
Ab|*-7-7-7-7-7-7-7-7--7-7-7-7-7-7-7-7--7-7-7-7-7-7-7-7--7-7-7-7-7-7-7-7--|
Eb|----------------------------------------------------------------------|

Gb|------------------------------------|
Db|*----------------------------------*|
Ab|*-7-7-7-7-7-7-7-7--7-7-7-7-7-7-7-7-*|
Eb|------------------------------------|

Then:(01:55)
Gb|----------------------------------------------------------------------|
Db|*--------------------------------------------------------------------*|
Ab|*7-7-7-7-7-7-7-7--5-5-5-5-5-5-5-5-5--3-3-3-3-3-3-3-3--2-2-2-2-2-2-2-2*|
Eb|----------------------------------------------------------------------|

Gb|----------------------------------------------------------------------|
Db|*--------9-------9--------7-------7--------5-------5-----------------*|
Ab|*--7--7----7--7-----5--5----5--5-----3--3----3--3-----2---2-2-2-2-2/-*|
Eb|----------------------------------------------------------------------|

Verse:(02:10)
Gb|----------------------------------------------------------------------|
Db|*--------------------------------------------------------------------*|
Ab|*7-7-7-7-7-7-7-7--5-5-5-5-5-5-5-5-5--3-3-3-3-3-3-3-3--2-2-2-2-2-2-2-2*|
Eb|----------------------------------------------------------------------|
2 times

Bridge:(02:22)
Gb|------------------------------------------------------|
Db|*----------------------------------------------------*|
Ab|*2-2-2-2-2-2-2-2--2-2-2-2-2-2-2-2-2--2-2-2-2-2-2-2-2-*|
Eb|------------------------------------------------------|

Chorus:(02:28)
Gb|----------------------------------------------------------------------|
Db|*--------------------------------------------------------------------*|
Ab|*7-7-7-7-7-7-7-7--5-5-5-5-5-5-5-5-5--3-3-3-3-3-3-3-3--2-2-2-2-2-2-2-2*|
Eb|----------------------------------------------------------------------|
2 times

Gb|----------------------------------------------------------------------|
Db|*--9-7-----9-7------7-5-----7-5--------5-3-----5-3-------------------*|
Ab|*7-----9-7-----9--5-----7-5-----7-5--3-----5-3-----3--2-2-2-2-2-2-2-2*|
Eb|----------------------------------------------------------------------|
2 times

Guitar Solo:(02:55)
Gb|----------------------------------------------------------------------|
Db|*--------------------------------------------------------------------*|
Ab|*7-7-7-7-7-7-7-7--5-5-5-5-5-5-5-5-5--3-3-3-3-3-3-3-3--2-2-2-2-2-2-2-2*|
Eb|----------------------------------------------------------------------|
2 times

Gb|----------------------------------------------------------------------|
Db|*--------9-------9--------7-------7--------5-------5-----------------*|
Ab|*--7--7----7--7-----5--5----5--5-----3--3----3--3-----2---2-2-2-2-2/-*|
Eb|----------------------------------------------------------------------|
2 times

Chorus:(03:22)
Gb|----------------------------------------------------------------------|
Db|*--------------------------------------------------------------------*|
Ab|*7-7-7-7-7-7-7-7--5-5-5-5-5-5-5-5-5--3-3-3-3-3-3-3-3--2-2-2-2-2-2-2-2*|
Eb|----------------------------------------------------------------------|

Gb|-----------------------------------------------------------------------|
Db|----------------------------------------------------------------------*|
Ab|7-7-7-7-7-7-7-5-5-5-5-5-5-5-5-3-3-3-3-3-3-3-3-/14-14-14-14-14-14-14-14*|
Eb|-----------------------------------------------------------------------|

Bridge:(03:35)
Gb|-------------------------------------|
Db|*-----------------------------------*|
Ab|*-----------------------------------*|
Eb|-0-2-3--0-2-3--0-2-3--0-2-3--0-2-3-0-|

Out Of Bridge:(03:39)
Gb|----------------------------------|-----------------------------------|
Db|*---------------------------------|----------------------------------*|
Ab|*---------------------------------|----------------------------------*|
Eb|-5---------#-3------5---------#-3-|-5---------#-3------5---------#-3--|

Outro:(03:52)
Gb|----------------------------------------------------------------------|
Db|*---------------------------------------------------------------------|
Ab|*-7-7-7-7-7-7-7-7--7-7-7-7-7-7-7-7--7-7-7-7-7-7-7-7--7-7-7-7-7-7-7-7--|
Eb|----------------------------------------------------------------------|
3 times

Gb|----------------------|
Db|*--------------------*|
Ab|*-7-7-7-7-7-7-7-7--7-*|
Eb|----------------------|

Almost there ...

Sign in to get your own page with links to favourite songs and more. You are just one click away...

Login with Facebook Login with Google