Log in

One click and you are in

Login with Facebook Login with Google

Why sign up and log in

Guitar Tabs Explorer
U2 guitar tabs for Trip trough your eyes

Guitar tabs

U2 - Trip Trough Your Eyes
By Jura Bartonek - (Jago syn jungle) From Czech republic.
This is my tab on this beautiful song. I think this is correct version but you can
found some mistake/s..

 Intro + Verse:        Time: 0:36                                 VERSE :
e[---3---3--3--3-----*---3-3---3---3-----3------3----3---3-----*------------]
B[---3---3--3--3-----*---3---3---3---3-3----3-3---3----3---3-3-*------------]
G[---0---0--2--0-----*-----------------------------------------*------------]
D[---0---2--3--2-----*-----------------------------------------*------------]
A[---0---3-----3-----*-----------------------------------------*------------]
E[---3---------------*-----------------------------------------*------------]

  You...I?m waiting....:   2x              VERSE:
e[---3----3---3---3---------1--------1--*-----------------------------------]
B[-----3----3---3---3-----3---3------1--*-----------------------------------]
G[----------------------3-------3----2--*-----------------------------------]
D[--------------------3-----------3--3--*-----------------------------------]
A[--------------------------------------*-----------------------------------]
E[--------------------------------------*-----------------------------------]

  SOLO:                            After SOLO:
e[----15-15-15-15-15-15..15-15---*---3--3--3-----------------------]
B[----15-15-15-15-15-15..13-12---*---3--3--3-----------------------]
G[-------------------------------*---0--0--0-----------------------]
D[-------------------------------*---2--2--0-----------------------]
A[-------------------------------*---3--3--0-----------------------]
E[-------------------------------*---------3-----------------------]

Almost there ...

Sign in to get your own page with links to favourite songs and more. You are just one click away...

Login with Facebook Login with Google