Search tabs and chords

Search for song, artist or band

Log in

One click and you are in

Login with Facebook Login with Google

Why sign up and log in

Guitar Tabs Explorer
U2 guitar tabs for Three sunrises

Guitar tabs

u2

Regular Tuning

   (n.h.)

|---12--- push    |-12--12--13--10--12--8---8------|------5--3--1-1--0--|
|---12--- down    |--------------------------------|------------1-1--1--|
|---12--- tremolo |-12--12--14--10--12--10--9--10\-|-3/5-----3-------0--|
|-------- bar     |--------------------------------|--------------------|
|-------- dude    |--------------------------------|--------------------|
|--------         |--------------------------------|--------------------|
					Exhibit Lick I

CHORUS
 In this love song...
				    x3
|---12--12--13--10--12--12-12-12-12---|
|-------------------------------------|
|*--12--12--14--10--12--12-12-12-12--*|
|*-----------------------------------*|
|-------------------------------------|
|-------------------------------------|


play EXHIBIT LICK I



		(natural harmonics)
|-----------|-------------------------|-------------------------------|
|-----------|-------------------------|-------------------------------|
|---5/------|--x-7-x-7-x-x-x-x-7-x-7--|-------------------------------|
|---5/------|--x-7-x-7-x-x-x-x-7-x-7--|--5\3-3/5-5\3-3/5-5\3-3/5-5\3--|
|---3/------|-------------------------|--3\1-1/3-3\1-1/3-3\1-1/3-3\1--|
|-----------|-------------------------|-------------------------------|

play CHORUS



then>

|--12--13--15--17--19--17--15--13--12--10--12--12----12--------12-|
|-----------------------------------------------------------------|
|--12--14--15--17--20--17--15--14--12--10--12-----12----12--12----|
|-----------------------------------------------------------------|
|-----------------------------------------------------------------|
|-----------------------------------------------------------------|



 Sun shine....

|--0-0-0--1-1-1-1-1-1-1-1-1-|--0-0--3--1-1--0-0-|
|--1-1-1--1-1-1-1-1-1-1-1-1-|--1-1--1--1-1--1-1-|
|---------------------------|-------------------|
|---------------------------|-------------------|
|---------------------------|-------------------|
|---------------------------|-------------------|


|--1-1-1--1-1-1--1-1-1--1-1-1--1-1-1--|---0---|
|--1-1-1--1-1-1--1-1-1--1-1-1--1-1-1--|---1---|
|-------------------------------------|-------|
|-------------------------------------|-------|
|-------------------------------------|-------|
|-------------------------------------|-------|


play CHORUS x2

  I don't remember the order after this, but this is essentially all the
  music in the song.

Almost there ...

Sign in to get your own page with links to favourite songs and more. You are just one click away...

Login with Facebook Login with Google