Search tabs and chords

Search for song, artist or band

Log in

One click and you are in

Login with Facebook Login with Google

Why sign up and log in

Guitar Tabs Explorer
U2 bass tabs for The flowering rose of glastonbury

The Flowering Rose Of Glastonbury bass tab by U2

U2 bass tabs for The flowering rose of glastonbury

Bass tabs

ARTIST:U2
TITLE:THE FLOWERING ROSE OF GLASTONBURY

BY: LUCA GEMMA

STANDARD TUNING

G |---------------|
D |---------------|
A |77-------------|
E |00-------------|


|---------------|
|---------------|
|77-77-2-5-2-525|   X4
|00-00----------|


verse
|---------------|
|---------------|
|7775-4--------5|   X4
|-------5--5-78-|

|---------------|----------|
|---------------|----------|
|------00-2-3---|-0-2-3-5--|   X2
|0003---------3-|----------|



|---------------|
|---------------|
|77-77-2-5-2-525|   X4
|00-00----------|

|----------------|------------------|
|----------------|------------------|
|----------------|-7--5-4---7--5-4--|
|5555555533333333|-------7--------7-|

|----------------|------------------|
|----------------|------------------|
|----------------|------------------|
|5555555533333333|-7--5-32--7--5-32-|

|---------------|----------------|
|---------------|----------------|
|77-77----------|77-77-----------|
|00-00----------|00-00-----------|

verse
|-------------|
|-------------|
|-------------|    X4
|00-33-55-353-|

|---------------|----------|
|---------------|----------|
|------00-2-3---|-0-2-3-5--|   X2
|0003---------3-|----------|

|---------------|              |-----------------|
|---------------|              |-----------------|
|77-77-2-5-2-525|   X4         |-----------------|
|00-00----------|              |0----------------|

SOLO THE EDGE
|----------------|----------------|
|----------------|----------------|
|----------------|0000000233333333|
|0000000233333333|----------------|

|---------------|              |-----------------|
|---------------|              |-----------------|
|77-77-2-5-2-525|   X2         |-----------------|
|00-00----------|              |0----------------|


|----5X---------5X--|      (X=HARMONICS)
|--5X---5X----5X--5X|
|7X--------7X-------|   X2
|-------------------|

|----5X---------5X--|5X---------------|
|--5X---5X----5X--5X|-----------------|
|7X--------7X-------|-----------------|
|-------------------|-----------------|

|---------------|              |-----------------|
|---------------|              |-----------------|
|77-77-2-5-2-525|   X10        |77---------------|
|00-00----------|              |00---------------|

Question, Comments, Corrections shall be sent to gemma.luca@gmail.com

Almost there ...

Sign in to get your own page with links to favourite songs and more. You are just one click away...

Login with Facebook Login with Google