Log in

One click and you are in

Login with Facebook Login with Google

Why sign up and log in

Guitar Tabs Explorer
U2 guitar tabs for Sweetest thing

Guitar tabs

[Intro]

e|---12---------12----12----10---8---12---------12-----------------12---------------------12-----------------|
B|--------------13----13----12---10--------------------------------------------------------------------------|
G|------12-12---12----12----12---10-----12-12------12-12--9h10/12-----12-12---9/10/12-10-----12-12---9/10/12-|
D|--------------10-10----10----------------------------------------------------------------------------------|
A|--------------------------10---8---------------------------------------------------------------------------|
E|-----------------------------------------------------------------------------------------------------------|

{Song}

{My love she throws me...}           Repeat 4X, then: {I'm losing you...}{2X}
e|---12----------------------12---------------------|--------10-------------13--12-10----------8----------|
B|--------------------------------------------------|-----------------------------------------------------|
G|------12-12---9/10/12-10------12-12---9/10/12-10--|---9h10-----10---12/14-----12-10--9h10p9-------------|
D|--------------------------------------------------|-----------------------------------------------------|
A|--------------------------------------------------|-----------------------------------------------------|
E|--------------------------------------------------|-----------------------------------------------------|

{I wanted to run...}                               {Eternal fire...} {6X}
e|---12----------------------12--------------------|---12-----------------|
B|-------------------------------------------------|----------------------|
G|------12---9-10/12-10--------12-12---9-10/12-10--|------12--9h10-9h10---|
D|-------------------------------------------------|----------------------|
A|-------------------------------------------------|----------------------|
E|-------------------------------------------------|----------------------|

{I'm losing you...}
e|------8h10--------13p12-10/12--10-8---10------8h10---------13p12--10-8------|
B|----------------------------------------------------------------------------|
G|---9----10--12/14----12-10/12--10-9---10---9----10--12/14-----12--10-9--10--|
D|----------------------------------------------------------------------------|
A|----------------------------------------------------------------------------|
E|----------------------------------------------------------------------------|

{Sweetest thing...}  {2X}                              {Tiny babe...}
e|---------------8----8--------------------8----8------|-----------------------------10--12---|
B|--------8---------8----8---------8----------8----8---|---------------8--10--12-13-----------|
G|---9h10----10---------------9h10----10---------------|------7-9--10-------------------------|
D|-----------------------------------------------------|---10---------------------------------|
A|--------------------------8------------8-------------|--------------------------------------|
E|-----------------------------------------------------|--------------------------------------|

{Oh my love...}                                                {Blue eyed boy...}
e|---13--12-10---------10--13--12-10-13--12-10-------10----10-|------10/12--8----10----8-------12-8-10-13-13-|
B|--------------12-13-----------------------------------------|----------------------------------------------|
G|-----------------------------------14--12-10--9h10----9-----|-9-10----12--9-10-----9---10/12-12-9-10-14-14-|
D|------------------------------------------------------------|----------------------------------------------|
A|------------------------------------------------------------|----------------------------------------------|
E|------------------------------------------------------------|----------------------------------------------|

 {4X}          {Do do do do...}                                               {2X}
e|--12--10-----|---15-15--13--12--13--15p13-12--10/15-15-13--12-13--12-10--8-|------3-----3----3---3---3-----|
B|-------------|-------------------------------------------------------------|--1-1-----1----1---1---1-------|
G|--12--10--9--|---16-16--14--12--14--16p14-12--10/16-16-14--12-14--12-10--9-|--------0------------------0h2-|
D|-------------|-------------------------------------------------------------|-------------------------------|
A|-------------|-------------------------------------------------------------|-------------------------------|
E|-------------|-------------------------------------------------------------|-------------------------------|

{Do do do do, do do sweetest thing...}
e|--------3-----3------3-------3------3----3------8---|
B|------1---1--------1-------1------1---1--1----------|
G|---2--------2---2-------0------0---------0---9------|
D|----------------------------------------------------|
A|----------------------------------------------------|
E|----------------------------------------------------|


************************************

| h   Hammer-on
| p   Pull-off
| /   Slide up
| \   Slide down

Other versions of Sweetest Thing

Sweetest thingChords

Almost there ...

Sign in to get your own page with links to favourite songs and more. You are just one click away...

Login with Facebook Login with Google