Search tabs and chords

Search for song, artist or band

Log in

One click and you are in

Login with Facebook Login with Google

Why sign up and log in

Guitar Tabs Explorer
U2 guitar tabs for Sunday bloody sunday live

Guitar tabs with lyrics

SUNDAY BLOODY SUNDAY, from U2’s live from Mexico city.

Words by Bono. Music by U2.

Transcribed by Marc Julià Pascual from Matadepera, BCN,
Spain. (mjuli003@correu.udg.es or tommy_boy@mixmail.com)

This is the “rediscovered” version of U2’s “Sunday Bloody
Sunday” taken from the official video “U2 POP MART live from
Mexico city”. The Edge sings and plays the only guitar in
the song, a Gibson Les Paul Classic tunned down ½ step with
a capo on the fift fred. You can also play this with the
standard tunning and a capo on the fourth fred. Remember
this version is slowly than the “War’s” record version.
I don’t know if anyone transcribed this before, but i think
this is exactly the way that The Edge played in Mexico. If
it’s not, it’s fucking good!

(Remember the capo)

[Riff One]

e|-------2-------2-----|-------0-------0-----|
B|-----3---3---3---3---|-----3---3---3---3---|
G|---4-------2---------|---0-------0---------|
D|---------------------|---------------------|
A|---------------------|---------------------|
E|---------------------|---------------------|

[Riff Two]

e|--------2-----2----|--------0----------|
B|------3---3-----3--|------3---3--------|
G|----2-------2------|----0-------0------|
D|--0----------------|--2-----------(2)--|
A|-------------------|-------------------|
E|-------------------|-------------------|
         How long,_      how long must we sing this song?

e|--------2-----2----|--------3----------|--------3-----3--|
B|------3---3-----3--|------3---3--------|------3---3------|
G|----2-------2------|----0-------0------|----0-------0----|
D|--0----------------|--2-----------(2)--|--2--------------|
A|-------------------|-------------------|-----------------|
E|-------------------|-------------------|-----------------|
         How long,_         how long?____________

[Riff Three] (play it like the album version)

  Harm........................................
e|---------------------|----------------------|
B|--------------7------|---7------------------|
G|-----7------5--------|-----7----------------|
D|---7-----------------|----------------------|
A|---------------------|----------------------|
E|---------------------|----------------------|


[Riff Four] (listen the song to take the rhythm)

     A chord diagramF#F#                    A chord diagramG# minorG#m
e|---2--2--2--2--------|---0--0--0--0--------|
B|---3--3--3--3--------|---0--0--0--0--------|
G|---2--2--2--2--------|---0--0--0--0--------|
D|---0--0--0--0--------|---2--2--2--2--------|
A|---------------------|---2--2--2--2--------|
E|---------------------|---------------------|
          How long,_         how long must we sing this
song?

     A chord diagramD MajorD                     A chord diagramG#m7G#m7
e|-2-2-2-2-2-2-2-2-|-0-0-0-0-0-0-0-0-|-3-3-3-3-3-3-3-3-|
B|-3-3-3-3-3-3-3-3-|-3-3-3-3-3-3-3-3-|-3-3-3-3-3-3-3-3-|
G|-2-2-2-2-2-2-2-2-|-0-0-0-0-0-0-0-0-|-0-0-0-0-0-0-0-0-|
D|-0-0-0-0-0-0-0-0-|-2-2-2-2-2-2-2-2-|-2-2-2-2-2-2-2-2-|
A|-----------------|-2-2-2-2-2-2-2-2-|-2-2-2-2-2-2-2-2-|
E|-----------------|-----------------|-----------------|
           How long,_         how long?____________


[Riff Five] (listen the song to take the rhythm)

     A chord diagramD#mD#m      A chord diagramF#F#             A chord diagramBB
e|---2-------------------|---3----------------|
B|---3--------7----------|---3----------------|
G|---4--------7----------|---4----------------|
D|---4--------7----------|---5----------------|
A|---2--------5----------|---5----------------|
E|-----------------------|---3----------------|

[End]

e|-----2-------2---|-----0-------0---|-----2---------|
B|---3---3---3---3-|---3---3---3---3-|---3-----------|
G|-4-------2-------|-0-------0-------|-4-------------|
D|-----------------|-----------------|---------------|
A|-----------------|-----------------|---------------|
E|-----------------|-----------------|---------------|
      Sunday, bloody sunday.....


And here are the lyrics: There is a little difference
between this lyrics and the original song lyrics (the album
version).


[Riff one] (Two times without singing)

I ...
Oh...

[Riff two]

How ..
How ...

[Riff one]

‘Cause ..
tonight!__

Broken ..
Bodies ..
But i ..
It ..

Sunday..
Sunday,..

[Riff three]

Sunday..
(play it one more time without singing)

[Riff one] (Two times without singing)

And ..
There’s ..
The ..
And ..

Sunday..
Sunday..

[Riff four]

How ..
How ..

[Riff five]

‘Cause ..
Tonight___
Tonight..
Tonight___

[Riff one] (Two times without singing)

Sunday..
Sunday..
Sunday..

[End]

Sunday..

Transcribed by Marc Julià Pascual. If you want more tab’s
from other U2 songs, send me an e-mail.
Any questions or comments to mjuli003@correu.udg.es or
tommy_boy@mixmail.com .






Obtenga GRATIS su E-Mail permanente en
http://www.mixmail.com
data-matched-content-ui-type="image_card_stacked"

Almost there ...

Sign in to get your own page with links to favourite songs and more. You are just one click away...

Login with Facebook Login with Google