Log in

One click and you are in

Login with Facebook Login with Google

Why sign up and log in

Guitar Tabs Explorer
U2 guitar tabs for Summer of love

Guitar tabs

Intro:

      A chord diagramE minorEm             A chord diagramG MajorG
e|-----------------|--------------------------------------|
B|-----8--101210-8-|---12--12-10--8-----------------------|
G|-----------------|--------------------------------------|
D|-----------------|--------------------------------------|
A|----7---7------7-|--10---10-----10----------------------|
E|-----------------|--------------------------------------|

      A chord diagramA minorAm             A chord diagramC majorC
e|-----------------|--------------------------------------|
B|-----10-121312-10|---17-1717--15------------------------|
G|-----------------|--------------------------------------|
D|-----------------|--------------------------------------|
A|---/12--12-----12|-/15--15----15------------------------|
E|-----------------|--------------------------------------|


Fingering suggestion:
For the Em, use your first finger on the A chord diagramA majorA string, and slide with
your fourth finger from 10 up to 12 and down again with your pinky.
Otherwise always use your second finger on the A chord diagramA majorA string


************************************

| /  Slide up

Other versions of Summer Of Love

Summer of loveChords

Almost there ...

Sign in to get your own page with links to favourite songs and more. You are just one click away...

Login with Facebook Login with Google