Log in

One click and you are in

Login with Facebook Login with Google

Why sign up and log in

Guitar Tabs Explorer
U2 bass tabs for Stranger in a strange land

Bass tabs

Tuning: Standard (E A D G)


Intro:

G|------|------|-------|-----|-------|------------|-------|-----|
D|------|------|-------|-----|-------|------------|-------|-----|
A|-0----|-0----|-------|-----|-------|------------|-0-----|-----|
E|------|------|-3-----|-----|-0-----|-----0-3-0--|-------|-----|
G|-----------|-----------------|-----------|-----------------|
D|-----------|-----------------|-----------|-----------------|
A|-----------|---------3-2-0---|-----------|---------3-2-0---| x2
E|-0---0-3---|-0---0-----------|-0---0-3---|-0---0-----------|


Verse 1:

G|-----------------|--------------------|--------------------|--------------------------|
D|-----------------|--------------------|--------------------|--------------------------|
A|-----------------|--------------------|--------------------|--------------------------|
E|-10/12---10/12---|-10/12--10/12--12---|-12-10-10---10-10-8-|-10-10-10-10-10-10-10-10--|

G|-----------------|---------------|-------------------|-------|
D|-----------------|---------------|-------------------|-------|
A|-----------------|---------------|-------------------|-0-----|
E|-10/12---10/12---|-3-----2---0---|-10----10/12--10---|-------|


Chorus:

G|---------|-----------------|
D|---------|-----------------|
A|---------|-------5---------| x8
E|-0---0---|-0---0---0---0---|


Verse 2:

G|----------|-----|------------|------|------------|-------|-----------|-------------|
D|----------|-----|------------|------|-5----------|-------|-----------|-------------|
A|-----5----|-----|-5---3-0----|------|------5-----|-5-----|-5---3-0---|-------------|
E|-3--------|-----|------------|------|------------|-------|-----------|-------0-3-0-|


Interlude:

G|-----------------|----------------|-------|-----|-------|-----------|-----------|------|-----|
D|-----------------|----------------|-------|-----|-------|-----------|-----------|------|-----|
A|-0---0-----------|----------------|-0-----|-----|-------|-----------|-----------|-0----|-----|
E|-------3---0-3-0-|-3---0----0-3-0-|-------|-----|-3-----|-0---0-----|----0-3-0--|------|-----|

G|-----------|-----------------|-----------|-----------------|
D|-----------|-----------------|-----------|-----------------|
A|-----------|---------3-2-0---|-----------|---------3-2-0---| x2
E|-0---0-3---|-0---0-----------|-0---0-3---|-0---0-----------|


Verse 3:

G|-----------------|--------------------|--------------------|--------------------------|
D|-----------------|--------------------|--------------------|--------------------------|
A|-----------------|--------------------|--------------------|--------------------------|
E|-10/12---10/12---|-10/12--10/12--12---|-12-10-10---10-10-8-|-10-10-10-10-10-10-10-10--|

G|-----------------|---------------|-------------------|-------|
D|-----------------|---------------|-------------------|-------|
A|-----------------|---------------|-------------------|-0-----|
E|-10/12---10/12---|-3-----2---0---|-10----10/12--10---|-------|


Chorus:

G|---------|-----------------|
D|---------|-----------------|
A|---------|-------5---------| x8
E|-0---0---|-0---0---0---0---|


Interlude:

G|---------|---------|-------------|-----|
D|---------|---------|-------------|-----|
A|-0---0---|---------|-------------|-----| x2
E|---------|-3---3---|-3/10---10---|-----|

G|----------|----------|---------|----------|------------|-----------|-------|----------|
D|----------|----------|---------|----------|------------|-----------|-------|----------|
A|-2---5----|-2---5----|-0--0----|-0--------|------------|-0--0-5----|-0-----|-0--------|
E|----------|----------|---------|-----3----|-3--3--3----|-----------|-------|----------|

G|----------|----------|----------|-------------|
D|----------|----------|----------|-------------|
A|-0---0----|-5--------|-----0----|-0---0-0-0---|
E|----------|-----3----|-3--------|-------------|


Outro: (Fade out)

G|---------|---------|--------------|----------|
D|---------|---------|--------------|----------|
A|-0---0---|-5---5---|-5--3--5--5---|-0---0----|
E|---------|---------|--------------|----------|


************************************

| / Slide up

************************************

Almost there ...

Sign in to get your own page with links to favourite songs and more. You are just one click away...

Login with Facebook Login with Google