Search tabs and chords

Search for song, artist or band

Log in

One click and you are in

Login with Facebook Login with Google

Why sign up and log in

Guitar Tabs Explorer
U2 guitar tabs for Stories for boys

Guitar tabs

’e|---------3-|--------3-2-|------------|-------7---------|--------5---------|
B|-------1---|------1-----|------------|-----5-----------|-----5------------|
G|-----2-----|----2-------|------------|*--0-------------|---0-------------*|
D|-----------|------------|------------|*----------------|-----------------*|
A|-----------|------------|------------|--------55-44-33-|---------55-44-33-|
E|--0--------|--0---------|------------|-0---------------|-0----------------|
e|----0----|----0----|--3--5--3--5--3--3--5--|--2-0--|----0----|--2-0--|
B|----0----|----0----|--3--3--3--3--3--3--5--|--0-0--|----0----|--0-0--|
G|----0----|*---0----|----------------------*|-------|----0----|-------|
D|----2----|*---2----|----------------------*|-------|----2----|-------|
A|---------|---------|-----------------------|-------|----2----|-------|
E|---------|---------|-----------------------|-------|----0----|-------|


Chorus:
Come and go....   Stories for Boys....		(natural harmonics)__________


e|---888-888-8---|----0--|---0-|---0-|-0-7---5-|----12-|--7-----|-------|--7--|
B|---888-888-8---|--0----|-----|-0---|-----0---|-12----|----7---|-------|--7--|
G|*-------------*|*------|-2---|-----|--------*|-------|------7-|---7-5-|--7--|
D|*-(5)-(7)-(5)-*|*------|-----|-----|--------*|-------|--------|-7-----|--7--|
A|--(3)-(5)-(3)--|-------|-----|-----|---------|-------|--------|-------|-----|
E|---------------|-------|-----|-----|---------|-------|--------|-------|-----|

	  			    (n.h.)
e|---0----|    end |--12-12--12-12-|---12---|
B|-----0--|	  |---------------|---12---|
G|--------|	  |---------------|---12---|
D|--------|	  |---------------|--------|
A|--------|	  |---------------|--------|
’

Stories For Boys tab

U2 guitar tabs for Stories for boys A song from U2s debut album Boys. The lyrics are about boys and their fantasy heroes. Comic books and all kinds of heroes. One of the first tunes U2 wrote together in the early 80s.

 

Other versions of Stories For Boys

Stories for boysChords

Almost there ...

Sign in to get your own page with links to favourite songs and more. You are just one click away...

Login with Facebook Login with Google