Log in

One click and you are in

Login with Facebook Login with Google

Why sign up and log in

Guitar Tabs Explorer
U2 guitar tabs for Still havent found

Guitar tabs with lyrics

with SMTP id <AA28889>; Mon, 14 Jun 1993 10:49:57 -0700


U2

I STILL HAVEN'T FOUND WHAT I'M LOOKING FOR  (from the album "The Joshua Tree")
------------------------------------------
NOTE: Much of this is taken from The Joshua Tree songbook.

I ..
A chord diagramD MajorD

I ..
Only ..
        A chord diagramG MajorG

Only ..
	D

I ..
       A chord diagramD MajorD

I ..
		      A chord diagramG MajorG

Only ..
        A chord diagramD MajorD

But ...
           A chord diagramA majorA 		 A chord diagramG MajorG

What ..
             A chord diagramD MajorD

But ..
What ..

verse/chorus


verse/chorus

CHORD FORMATIONS:
-----------------
A chord diagramD MajorD  x x 0 2 3 2
A chord diagramG MajorG  3 2 0 0 3 3
A chord diagramA majorA  x 0 2 2 2 0


Note: the book has A chord diagramD5D5 and A chord diagramG5G5 instead of A chord diagramD MajorD and G, but I think this makes for
a nicer acoustic version.  Below are the 5th chords, which might be good for a
second guitar:

A chord diagramD5D5  10 12 0 x x x
A chord diagramG5G5   3  5 0 x x x
A chord diagramA5A5   5  7 0 x x x

Also, below is tab used in the song, in case you want to play around
with that (heavy echo recommended for best effect):

  Intro (MUTED):
E-----------------------------------------------------------------------------
B-----------------------------------------------------------------------------
G-7-7-7-7-7---7-7-7-7-7-------------------------------------------------------
D-----------------------------------------------------------------------------
A-----------------------------------------------------------------------------
E-----------------------------------------------------------------------------

  Main guitar riffs used by The_Edge (heavy echo):
E--------------------------------------------------9--------------------------
B------10-10-10-----10-10-10-----10-10-10-----10-10-10------------------------
G----7------7-----7------7-----7------7-----7---------------------------------
D--0------------0------------0------------0-----------------------------------
A-----------------------------------------------------------------------------
E-----------------------------------------------------------------------------

  Finally, the guitar interlude before the last verse (this can be played
  in the "just chords" acoustic version, or the regular "real" version):
E-2--2--2--3--3--3-----3--3--3--2-----2-----2--2--2--3-----3-----3--3--3--2---
B-3--3--3--3--3--3-----3--3--3--3-----3-----3--3--3--3-----3-----3--3--3--3---
G-2--2--2--2--2--2-----2--2--2--2-----2-----2--2--2--0-----0-----0--0--0--2---
D-----------------------------------------------------------------------------
A-----------------------------------------------------------------------------
E-----------------------------------------------------------------------------

Almost there ...

Sign in to get your own page with links to favourite songs and more. You are just one click away...

Login with Facebook Login with Google