Search tabs and chords

Search for song, artist or band

Log in

One click and you are in

Login with Facebook Login with Google

Why sign up and log in

Guitar Tabs Explorer
U2 bass tabs for Red flag day

Bass tabs

Intro:

First bar goes without bass

Verse 1:

G|----------------------------------|------8--------------------|
D|----------------------8-----------|---------------8-10--10--8-|
A|-----10--10--8-10-------10--8--10-|--6--6--6------------------|
E|----------------------------------|---------------------------|

G|----------------------------------|---------------------------|
D|----------------------8-----------|---------------------------|
A|-----10--10--8-10---8---10--8--10-|--6--6--6-------3-3--0-3---|
E|----------------------------------|---------------------------|

G|----------------------------------|---------------------------|
D|----------------------8-----------|--------------10-10--10-10-|
A|-----10--10--8-10---8---10--8--10-|--6--6--6------------------|
E|----------------------------------|---------------------------|

G|----------------------------------|------8--------------------|
D|----------------------8-----------|---------------8-10--10--8-|
A|-----10--10--8-10---8---10--8--10-|--6--6--6------------------|
E|----------------------------------|---------------------------|

G|----------------------------------|---------------------------|
D|----------------------8-----------|---------------------------|
A|-----10--10--8-10---8---10--8--10-|--6--6--6-------3-3--0-3---|
E|----------------------------------|---------------------------|

Chorus:

Two bars go without bass

G|--------------------------------------------------|---------------------------------------|
D|--------------------------------------------------|---------------------------------------|
A|---10-10-10-10-10-10-10-10\13-13-13-13-13-13-13-13|/6-6-6-6-6-6-6-6\15-15-15-15-17-15-17--|
E|--------------------------------------------------|---------------------------------------|

G|--------------------------------------------------|---------------------------------------|
D|--------------------------------------------------|---------------------------------------|
A|---10-10-10-10-10-10-10-10\13-13-13-13-13-13-13-13|/6-6-6-6-6-6-6-6/3-3-3-3-5-3-5---------|
E|--------------------------------------------------|---------------------------------------|

G|-----------------------------------|------8--------------------|
D|--------------------8-8------------|---------------8-10--10--8-|
A|-----10--10--8-10-------10--8--10--|--6--6--6------------------|
E|-----------------------------------|---------------------------|x2

Verse 2:

Clayton plays sotly along with drums in the first two bars. It goes like this:

G|-----------------------|
D|--10-10-10-10-10-10/---|
A|-----------------------|
E|-----------------------|x2

G|----------------------------------|----------------------------|
D|----------------------8-----------|--------------10-10--10-10--|
A|-----10--10--8-10---8---10--8--10-|--6--6--6-------------------|
E|----------------------------------|----------------------------|

G|----------------------------------|------8---------------------|
D|----------------------8-----------|--------------8-10-10-10--8-|
A|-----10--10--8-10---8---10--8--10-|--6--6--6-------------------|
E|----------------------------------|----------------------------|



Chorus:

G|----------------------------------|----------------------------|
D|----------------------------------|----------------------------|
A|-----10------------\13------------|-\17---------/15------------|
E|----------------------------------|----------------------------|x2

G|--------------------------------------------------|---------------------------------------|
D|--------------------------------------------------|---------------------------------------|
A|---10-10-10-10-10-10-10-10\13-13-13-13-13-13-13-13|/6-6-6-6-6-6-6-6\15-15-15-15-17-15-17--|
E|--------------------------------------------------|---------------------------------------|

G|--------------------------------------------------|---------------------------------------|
D|--------------------------------------------------|---------------------------------------|
A|---10-10-10-10-10-10-10-10\13-13-13-13-13-13-13-13|/6-6-6-6-6-6-6-6/3-3-3-3-5-3-5---------|
E|--------------------------------------------------|---------------------------------------|

G|-----------------------------------|------8--------------------|
D|--------------------8-8------------|---------------8-10--10--8-|
A|-----10--10--8-10-------10--8--10--|--6--6--6------------------|
E|-----------------------------------|---------------------------|x2

Bridge:

G|-----------------------------------|----------------------------|
D|-----------------------------------|----------------------------|
A|-----10------------\13-------------|--/6------------/3----5-3-5-|
E|-----------------------------------|----------------------------|x2

G|--------------------------------------------------|---------------------------------------|
D|--------------------------------------------------|---------------------------------------|
A|---10-10-10-10-10-10-10-10\13-13-13-13-13-13-13-13|/6-6-6-6-6-6-6-6/3-3-3-3-5-3-5---------|
E|--------------------------------------------------|---------------------------------------|x2

Chorus:

G|-----------------------------------|------8--------------------|
D|--------------------8-8------------|---------------8-10--10--8-|
A|-----10--10--8-10-------10--8--10--|--6--6--6------------------|
E|-----------------------------------|---------------------------|x2


G|----------------------------------|------8---------------------|
D|----------------------8-----------|--------------8-10-10-10--8-|
A|-----10--10--8-10---8---10--8--10-|--6--6--6-------------------|
E|----------------------------------|----------------------------|x2



**********************************
| /   Slide up
| \   Slide down

Almost there ...

Sign in to get your own page with links to favourite songs and more. You are just one click away...

Login with Facebook Login with Google